viernes, 15 de octubre de 2010

Tabs, solfeo y acordes de "Sasha no Inori" (The Lost Canvas) Tabsolfeo/solfa

Primer Tab en esta pagina :P Pertenece a las ovas de "The Lost Canvas" y sería la melodia dedicada a Sasha aunque la colocaban cuando se les daba la gana. Es una composicion sencilla pero muy hermosa. De las mejores del soundtrack de "The Lost Canvas" (no es que tenga muchos buenos tracks tampoco). Pronto estara lista la partitura y el midi  de esta cancion para aquellos que no leen tabs y/o la quieran tocar en piano :)

First Tab in this web :P It belongs to "The Lost Canvas" and it would be the melody dedicated to Sasha althought i was putted whenever they wanted. Is a simple composition but a beautiful one. It's one of the best from "The Lost Canvas" soundtrack (it's not that it has many good tracks neither). It will be ready soon the sheet music and the midi of this song por those who don't read tabs and/or want to play it in the piano :)






Datos/Data
·Nombre original japones : サーシャの祈り
·Nombre japones en Romaji: Sasha no inori

·Traduccion japonesa: Sasha's prayer / La plegaria de Sasha

·Disco/Album:  Saint Seiya: The Lost Canvas - Hades Mythology ~ Original Soundtrack

·Compositor: Kaoru Wada   和田 薫

·Nº de Track: 4

·Duracion : 2' 06''







Solfeo

 a7 f7  g7  f7  e7 d7   c7 b6       d6 a6 c7 b6 a6 g6 d6 a6 f6  g6

 d6 a6  c7 b6  c7 b6 a6 f6 a6 g6      d6 a6 c7 b6 a6 g6 d6 a6 f6 g6

 d6 a6 c7 b6  c7 d7 e7   d7 c7  b6      d7 e7 f7  e7 d7 c7  g6  a6  c7 a6

 d7 e7 f7   e7 f7  g7   c8 a7    d7 e7 f7  e7 d7 c7   g6 a6 d7  f7  a7  

 a7 a7 g7 a7 a#7 a7 g7 a7  e7  d7 c#7    d6 a6 c7 b6 a6 g6 d6 a6 f6  g6

 d6 a6  c7 b6  c7 b6 a6 f6 a6 g6      d7 a7  c8 b7 a7 g7 d7 a7   f7 g7

 f7 e7 d7 e7 f7    e7  c7  d7     f7 e7 d7 e7 f7    e7  c7  d7     c7






Tab

E |--17/13--15--13-------------------|--------8--7~-----------------------|
B |-----------------17-15~--13-12----|-----10-------10-8-----10-----8~----|
G |----------------------------------|--7-----------------7-----10--------|
D |----------------------------------|------------------------------------|
A |--Guitarra 1----------------------|--Flauta----------------------------|
E |----------------------------------|------------------------------------|
     Dm     G          Dm      G        Dm       G        Dm        G



E |---------8--7~--8--7----------------|--------8--7~---------------------|
B |-----10---------------10----10-8~---|-----10-------10-8-----10----8~---|
G |--7----------------------10---------|--7-----------------7---- 10------|
D |------------------------------------|----------------------------------|
A |--Flauta----------------------------|--Violin--------------------------|
E |------------------------------------|----------------------------------|
    Dm         G         Dm       G      Dm        G        Dm       G



    
E |--------8--7~--8--10-12~--10----------|--10-12-13--12-10-------------------|
B |-----10----------------------13--12~--|------------------13--8--/10--13-10-|
G |--7-----------------------------------|------------------------------------|
D |--------------------------------------|------------------------------------|
A |--Violin------------------------------|--Guitarra 1------------------------|
E |--------------------------------------|------------------------------------|
    Dm       G          Dm          G             A#        C       Dm      F



        
E |--10-12-13---12-13-/15---20-17~---10-12-13--12-10------------10--13--17----|
B |--------------------------------------------------13---8--12---------------|
G |---------------------------------------------------------------------------|
D |---------------------------------------------------------------------------|
A |--Guitarra 1---------------------------------------------------------------|
E |---------------------------------------------------------------------------|
           A#          C       Dm F        A#        C       d  c   b   a#    





E |--17-17-15-17-18--17-15-17-[12][10][9]-|--------8--7~----------------------|
B |---------------------------------------|-----10-------10-8-----10-----8~---|
G |---------------------------------------|--7-----------------7-----10-------|
D |---------------------------------------|-----------------------------------|
A |--Guitarra 1---------------------------|---Flauta--------------------------|
E |---------------------------------------|-----------------------------------|
        D#                A#4          A#   Dm        G       Dm         G





E |---------8--7~--8--7----------------|-----17-/20-19-17-13----17---13-15----|
B |-----10---------------10----10-8~---|--15-----------------15---------------|
G |--7----------------------10---------|--------------------------------------|
D |------------------------------------|--------------------------------------|
A |--Flauta----------------------------|--Guitarra 1--------------------------|
E |------------------------------------|--------------------------------------|
    Dm         G         Dm       G       Dm        G        Dm          G





E |--13-12-10-12-13----12--8--/10--|--13-12-10-12-13----12--8--/10--|---8~-----|
B |--------------------------------|--------------------------------|----------|
G |--------------------------------|--------------------------------|----------|
D |--------------------------------|--------------------------------|----------|
A |--Guitarra 1--------------------|--Flauta------------------------|--Violin--|
E |--------------------------------|--------------------------------|----------|
           A#          C       D4 D         A#          C       D4 D    A#











Descargas/Downloads

Tabs + acordes + solfeo + explicaciones adicionales / Tabs + chords + solfa + additional explanations
Tabsolfeo/solfa sasha no inori tab 4shared
Tabsolfeo/solfa sasha no inori tab Mediafire






mp3 Sasha no Inori 4shared
mp3 Sasha no Inori Mediafire


Contraseña/Password: http://siguebrillandocosmos.blogspot.com








Escuchar / Listen










Enlaces relacionados
· Nuevamente "Sasha no inori" pero esta vez para piano
· KIZUNA, otra partitura mas de The Lost Canvas
· Tabs de "Death Messenger" (el canto de la cabeza cortada)
· Tabs de "Cadena de Flores" ("Single ~ The Lost Canvas")



·

No hay comentarios:

Publicar un comentario en la entrada

comenten CHE!