jueves, 9 de diciembre de 2010

Tabs de "Cadena de Flores" ("Single ~ The Lost Canvas") Tab solfeo/solfa

Recibí unos cuantos mails pidiendo los punteos (tabs) de esta cancion y, dado que tambien me gusta, opte por hacerlos :P  Decidi hacer 2 versiones de la melodia. Una facil y otra para avanzados. Ademas inclui los punteos del intro, solo y outro. Todos en afinacion standart y con tonos de la cancion original (salvo la version facil de la melodia).

I received a few mails asking for the tabs of this song so i decided to make them (and because i like the song too :P). I decided to make 2 versions of the melody. One easy and another for advanced players. i also included the tabs for the intro, solo and outro. Everything is in standart tunning and original tone (excetp the easy version of the melody).







 Por cierto, no sabemos si Cadena de Flores sera, nuevamente,el ending de la 2da. temporada de "The Lost Canvas". Nos enteraremos pronto. Ah, no se olviden de revisar el post  Acordes de "Cadena de Flores"  en caso de que quieran acompañar el punteo con otra guitarra :D

By the way, we don't know if Chain of Flowers will be, again, the ending for the 2nd. season of "The Lost Canvas". We'll find out soon. Ah, don't forget to take a look to the post Acordes de "Cadena de Flores" if you wish to make an accompaniment with another guitar :D









Datos/Data

·Nombre original japones :   花の鎖
·Nombre japones en Romaji:  Hana no kusari  
·Traduccion japonesa: Chain / bracelet of flowers / Cadena / pulsera de flores


·Disco/Album:  The Lost Canvas - Hades Mythology - Theme Song Collection

·Compositor: Kacky 

·Letra: Masami Kurumada 車田 正美
           Koji Matsuo 松尾康治


·Arreglos: Kenichiro Oishi 大石憲一郎 


·Banda interprete/Performing band: Marina del Ray

·Cantante / Singer: Ikuno Maki 生乃麻紀

·Nº de Track: 5

·Duracion : 4:02













Referencias /References
h = hammer (martillo) --> Video Hammer
/ = slide (deslizamiento) -->
Video Slide
~ = vibrato (vibracion. Tambien se lo representa con "v") -->
Video Vibrato
^ = bend (estirar. Tambien se lo representa con "b") --> Video Bend



Intro

E |---------------------------------9-----|----------------8---9---11--8---------|
B |-----11---9-------------11---9-------9-|-----11--9---11----------------9------|
G |--8----------10------8-----------------|-8---------------------------------11-|
D |-----------------11--------------------|--------------------------------------|
A |---------------------------------------|--------------------------------------|
E |---------------------------------------|--------------------------------------|
    D#m



E |-------------------------------------------------11--13--11-10----------------|
B |------------------------------------------11--------------------11--9---------|
G |--10------------11--10------------11--10-------------------------------10-----|
D |------11--8--9----------11--8--9-------------(8)--------------------------12--|
A |------------------------------------------------------------------------------|
E |------------------------------------------------------------------------------|
               G#m                              A#4                          A#



El (8) es una nota optativa ya que es bastante dificil de tocar y ademas apenas se escucha en el track / The (8) is an optative note because is very hard to play and also is barely heard in the track




Melodia / Melody

 Facil / Easy 

VERSO  
E|-------0----0-----------------------------------------------------------|
B|-0-2-3----3---3--2-0-3--2-3--2-3-2-----------0-0-----0--2----2--3-2-3-2-|
G|------------------------------------2-2-2-0-------3---------------------|
D|----------------------------------------------------------4-------------|
A|------------------------------------------------------------------------|
E|------------------------------------------------------------------------|
  Nakushita iro wa too-i hi no kioku  Furui e no gu no hako sotto akereba


E|-------0----0-----------------------------------------------0--|
B|-0-2-3----3---3--2-0-3--2-2---------------0---0-2---2-2-3-3----|
G|-----------------------------2-2--0---0-----3------------------|
D|------------------------------------4-------------4------------|
A|---------------------------------------------------------------|
E|---------------------------------------------------------------|
   O-sanai tomo ga Itsumo ita yo ne kawaru koto nai Ano ega o o


PRE-CORO
E|--------------0-2------------------0-----------0-------0-2-0----|
B|-3-3-3---2--3-----3-3------------------3--2-3----3-2-3-------4--|
G|----------------------2-2-------0-------------------------------|
D|----------------------------4-4---------------------------------|
A|----------------------------------------------------------------|
E|----------------------------------------------------------------|
   Futari de yume o e-gaita  Kokoro no kyanbasu mada Iro Asena-i


E|--------------0----2---3--2--0----2-2--0-0--2-3-2-2---|
B|-3-3-3--2--3-------------------3----------------------|
G|------------------------------------------------------|
D|------------------------------------------------------|
A|------------------------------------------------------|
E|------------------------------------------------------|
  Kimi no te to boku no  te wo kasaneta hi no nukumori


CORO
E|---0-2--3-2----0--2-3-2-----0--2-3-2--2-2-0--0-2-3--5-2-3--3-2-0-3--3-2-2|
B|-3-----------3------------3----------------------------------------------|
G|-------------------------------------------------------------------------|
D|-------------------------------------------------------------------------|
A|-------------------------------------------------------------------------|
E|-------------------------------------------------------------------------|
  Hito wa naze itoshisa to nikushimi wo awase-mo--tte itsumo Ikiru no darou


E|---0-2-3-2-----0-2-3--2-----0-2-3-2-3-2-0--------------------0-0--------|
B|-3-----------3------------3---------------3-2-0----3-2--2-3-------3-3---|
G|------------------------------------------------------------------------|
D|------------------------------------------------------------------------|
A|------------------------------------------------------------------------|
E|------------------------------------------------------------------------|
  Yorokobi to kanashimi wo Karamasetsumuida seishun  no  towa no kizuna


E|---------------------|
B|-0-2-0--3--2-2----0--|
G|---------------2-----|
D|---------------------|
A|---------------------|
E|---------------------|
   ha-na no kusari yo


Esta version facil esta afinada 2 tonos mas bajo respecto al original / This easy version is tuned 2 steps down compared with the original.



  Avanzado / Advanced
VERSO
     * * * *  * * *  * * *  *  *  *  *  *    * * * *    *  *  *  * * 
E |-----------------------------------------------------------------------|
B |----6-7-9--7-9-7--6----------------------------------------------------|
G |--8-----------------8/11-10-11-10-11-10---6-6-6-4--6/8--8--7--8-10-----|
D |-----------------------------------------------------------------------|
A |-----------------------------------------------------------------------|
E |-----------------------------------------------------------------------|
    Nakushita iro wa too-i  hi no  ki-o-ku   Furui e    no gu no hako



     * *  *  *  *  *    * * * *  * * * *  *   *  *  *    * *   * *   *
E |-------------------|---------------------------------------------------|
B |----10-11-10-11-10-|---6-7-9--7-9-7--6---------------------------------|
G |--8----------------|-8-----------------8-8/11-10-10/6-6-6--------------|
D |-------------------|----------------------------------------9-8-8h9----|
A |-------------------|---------------------------------------------------|
E |-------------------|---------------------------------------------------|
    sotto  a-ker-eb-a   O-sanai tomo ga  Itsumo   i-ta  yo ne  kawaru



     * * * *   *   *  *  * *   *
E |-------------------------------|
B |----------------------7-7h9-9--|
G |--8-7-8-10----8/10-10----------|
D |------------8------------------|
A |-------------------------------|
E |-------------------------------|

    koto na-i  A-no    e-ga  o o


PRE-CORO
      * * *  * *  *  *   * *   * * * *   *   *  * * * *  * *  *   * * * *
E |-----------------------------------------------------------------6-----|
B |-6/7-7-7--6-7--9~/11--7-7/2-2-2---------7/9--7-6-7-9--7-6--7-8/9---9-8-|
G |-----------------------------------------------------------------------|
D |--------------------------------8-8-8h9--------------------------------|
A |-----------------------------------------------------------------------|
E |-----------------------------------------------------------------------|
     Futari de yume   o   e-gai-ta Koko-ro  no kyanbasu  mada Iro A-sena-i



    * * * *  * *  *   *   *    *  * * *    *  * *  *     *  *     *   
E |--------------------------------------------------------------------|
B |--7-7--7--6-7--9-9/11--12-9/11-9---11-9h11-9-9--11-11h12-11-10h11---|
G |---------------------------------11---------------------------------|
D |--------------------------------------------------------------------|
A |--------------------------------------------------------------------|
E |--------------------------------------------------------------------|
    Kimi no te to boku no te   wo kasa-ne-ta hi no nukumori



CORO
     *  *   *  *  *    *  *   *  *  *    *  * *     *  *  *     *  *
E |---------------------------------------------------------------------|
B |-----9-9h11-12-11------9-9h11-12-11------9-11-11h12-11-12-10h11-9----|
G |--11----------------11----------------11-----------------------------|
D |---------------------------------------------------------------------|
A |---------------------------------------------------------------------|
E |---------------------------------------------------------------------|
     Hito   wa na-ze    i-to-shi-sa to   ni-kushi--mi  wo  a---wa-se



     *   *  *  * *     *   *  *  * *      *  *     *   *  *   *  *  * 
E |------------9--------------------------------------------------------|
B |--9-9h11-12---11-11/12--12-11-9-12--11/12-11-10h11-----9-9h11-12-11--|
G |----------------------------------------------------11---------------|
D |---------------------------------------------------------------------|
A |---------------------------------------------------------------------|
E |---------------------------------------------------------------------|
     mo--o-tte itsu----mo   Ikir-u no     da-ro---u    Yo-ro--ko-bi to



     *  * *  *     *   *  * *  *  *     *  *  *  *     *  *   
E |--------------------------------------------------------------|
B |-----9-11-12-10/11-----9-11-12-11-11h12-11-9------------------|
G |--11----------------11------------------------11-11/10-8------|
D |--------------------------------------------------------------|
A |--------------------------------------------------------------|
E |--------------------------------------------------------------|
     kanashi-mi    wo  Kara-ma-setsu---mu--i-da  se----ishun 



     *     *   *  *  *   *  *     *    * *  *     *  *  *  *     *   
E |-----------------------------------------------------------------------|
B |------------------9-7/9------------------------------------------------|
G |--11-11/10--10-11--------11-10h11---8h10-8--10h11-10-10----------------|
D |--------------------------------------------------------11-11/13-------|
A |-----------------------------------------------------------------------|
E |-----------------------------------------------------------------------|
     no----o   towa  no  ki-zu----na     ha-na    no ku-sa-ri    yo


Los asteriscos (*) encima indican que ese punteo es parte de la melodia. Los que no lo tienen asterisco son punteos agregados para que la melodia suene mejor y mas cercano a la voz del track / The asterisks (*) above indicate that the note is part of the melody. Those whick don't have asterisk are just an addition to make the tab more close to the voice in the track.



 SOLO

E |----------------------------------------------------------------------13------|
B |--------------------------11------12--11-----------14^16-16--16~/14~------14~-|
G |----------4/8~--6/11--11------11----------11---/6-----------------------------|
D |--5h6--9----------------------------------------------------------------------|
A |------------------------------------------------------------------------------|
E |------------------------------------------------------------------------------|
     G#m            F#                           G#m                F#



E |---------16----18----20~/--------14----16----18-------17-14-------------11~---|
B |---6/16-----16----16--------7/14----14----14-----14---------16-13-------------|
G |------------------------------------------------------------------14-11-------|
D |------------------------------------------------------------------------------|
A |------------------------------------------------------------------------------|
E |------------------------------------------------------------------------------|
       G#m                      F#                       D#m               A#4



E |---11^13--10~---|
B |----------------|
G |----------------|
D |----------------|
A |----------------|
E |----------------|
          A#


El archivo de texto descargable tiene varias aclaraciones respecto al SOLO 




 OUTRO
  
E |-------------------------------9-----|----------------8--9--11--8-------------|
B |----11--9-------------11---9-------9-|----11--9---11----------------9---------|
G |-8---------10------8-----------------|-8-------------------------------10-----|
D |---------------11--------------------|-------------------------------------11-|
A |-------------------------------------|----------------------------------------|
E |-------------------------------------|----------------------------------------|
   D#m



E |------------------------------------------8---9--11--8---9-------8------------|
B |-----11--9-------------11------11--9--11---------------------11-----9------11-|
G |-8----------10------8-------8------------------------------------------10-----|
D |----------------11------------------------------------------------------------|
A |------------------------------------------------------------------------------|
E |------------------------------------------------------------------------------|



    
E |------------|
B |---9---7----|
G |---10--8----|
D |---11--9----|
A |---11--9----|
E |------------|
      C#  B



Este outro corresponde a la version "TV Size". El outro de la version Full tiene un par de notas mas / This outro is for the "TV Size" version. The outro from the full version has a couple of notes more.





Descargas/Downloads


Tabs con explicaciones adicionales / Tabs with additional explanations

Tab Tab Intro, Solo y Outro "hana no kusari" 4shared
Tab Tab Intro, Solo y Outro "hana no kusari" Mediafire

Tab Tab Melodia "Hana no kusari" 4shared
Tab Tab Melodia "Hana no kusari" Mediafire


solfeo/solfa Hana No Kusari melodia solfeo 4shared






partituras/sheetmusic Partitura-tab en formato jpg / Tab-Sheet music- in jpg format

4shared




Mediafire
hana1 hana2








partituras/sheetmusic Partitura en formato pdf / Sheet music in pdf format
pdf Hana no kusari 4shared
pdf Hana no kusari Mediafire





Archivo Guitar pro 5 / Guitar pro 5 file
Guitar pro hana no kusari guitar pro 4shared
Guitar pro hana no kusari guitar pro Mediafire




Midi
midi Hana no kusari guitarra 4shared
midi Hana no kusari guitarra Mediafire







mp3 Hana No Kusari (TV Size) 4shared
mp3 Hana No Kusari (TV Size) Mediafire

Contraseña/Password: http://siguebrillandocosmos.blogspot.com





Enlaces relacionados
· Acordes de "Cadena de Flores" ("Single ~The Lost Canvas")
· Acordes de "El reino de Athena" ("Single ~The Lost Canvas")
· "Saint no Shi"! Al fin una partitura del Lost Canvas!




·

9 comentarios:

cesar dijo...

hola muy bueno su trabajo, una consulta talvez tonta en la parte de la melodia que debe decir kaearu (D/9-8-8h9) no consigo hacerlo sonar asi ya afine la guitarra y la toco alguien mejor que yo pero nada le agradeceria si odria hacer un midi o una tabs en guitar pro para orientarme mas con los tiempo sy demas desde ya gracias

Cogedor_barato dijo...

Cesar, probe el tab y suena bien para mi. De todas maneras estoy haciendo un tab en guitar pro de esta cancion. pronto sera publicado asi que revisa el link de actualizaciones en la proxima semana :)

CESAR dijo...

MUCHAS GRACIAS¡¡ espero no vaya a tomar a mal lo que le voy a decir. pero yo estoy sacando el tabs de guardianes de universo si es que le interesaria que se lo pase porque no lo vi por aqui yo lo podria subir a algun servidor y se lo paso asi le publica no se que le parece???

Cogedor_barato dijo...

Porsupuesto que no hay ningun problema Cesar :D siempre es bienvenida cualquier tipo de colaboracion

Anónimo dijo...

bro en q tono tiene q estar afinada la guitarra?

Cogedor_barato dijo...

Tono estandar (mi la re sol si mi)

Anónimo dijo...

Gracias!!

Anónimo dijo...

hola tengo una duda, por que el ending dura solo 1:30 aprox. en guitar pro y en la serie, y en las especificaciones esta aclarado que dura 4:02?

Cogedor_barato dijo...

Porque yo especifico sobre la cancion completa. La version de 1:30 que se escucha en las ovas es lo que se llama "TV size" y no es mas que un recorte de la cancion completa (por obvias razones de espacio). Entonces seria erroneo poner que la duracion es 1:30, porque esa es solo una version recortada. La original es la version completa.
Mis tabs los hago siempre con duracion "TV size" porque mi intencion es brindar un marco de referencia, no hacer la cancion completa ya que la melodia en el verso, precoro y coro se vuelve a repetir con leves diferencias. Si pueden tocar los tabs entonces ya pueden sacar uds. mismos el tab de los versos y coros siguientes con sus respectivas modificaciones que, en casi todos los casos, son muy leves. Si hiciera los tabs de toda la cancion, tal vez no terminaria nunca :P

Publicar un comentario en la entrada

comenten CHE!