domingo, 12 de diciembre de 2010

Tabs del "String Nocturne" de Orfeo (y 1 video de su servidor XD) Tab

En esta ocasion les traigo el tab del "Nocturno de cuerdas" (String Nocturne) de Orfeo. Es la tonada que Orfeo toca, practicamente, todo el tiempo. Es un arreglo hecho en base a la partitura hecha por mi hace un tiempo. La version avanzada tiene un pequeño puente para hacer una especie de version extendida. Cabe aclarar que al no haber un track oficial, todas las notas fueron fielmente sacadas de lo que se escucha en las Ovas de Hades aunque no todas suenan en la misma escena.
Muchos la llaman "Death Trip Serenade" (Serenata mortal) pero eso seria algo ciertamente erroneo ya que "Death Trip Serenade" es el ataque que usa para dormir a Pandora y los jueces, y cuando utiliza ese ataque suena otra melodia. De todas maneras, no hay nombres oficiales para las melodias asi que uno puede llamarles como quiera. A mi me parece mas correcta "mi" denominacion :P


In this ocassion i bring you the tab of Orphee's String Nocturne. Is the piece that Orphee (Orpheus) plays, practically, all the time. Is an arrangement from a sheet music made by my long time ago. The advanced version has a little bridge to make it an the Extended version. There is no official track so all the notes where accurately extracted from the Hades ovas although not all sounds in the same scene.
Many people call this piece "Death trip Serenade" but that would be something wrong because "Death trip serenade" is the attack used by Orphee to make sleep Pandora and the Kyotos, and another melody sounds when he does that attack. Anyway, there is no official names for this pieces so you can put then any name you want but "my names"  looks more correct to me :P









Datos/Data
·Nombre Ingles internacional : String Nocturne
·Nombre original japones : ストリンガーノクターン
·Nombre japones en Romaji: Sutoringa Nokutan
·Traduccion japonesa: Stringer Nocturne / Nocturno (de) cuerda


·Disco/Album:  -

·Compositor: -

·Nº de Track: -

·Duracion : -






Version Facil (en tono Original)/ Easy version (in original tone)

E |-------------------------------|-----------------------------------|
B |-------------------------------|-----------------------------------|
G |-0---------------0-------------|---0--------------0----------------|
D |-------0--1~-----------0--1~---|---------1--3~---------1--3~-------|
A |-3-----3---------3-----3-------|---3-----0--------3----0-----------|
E |----3---------------3----------|------3--------------3-------------|
    Cm                               Cm/A



E |------|---------------------------------------------------------------|
B |------|----------------------1-3-4-3-1--------------------------------|
G |-0-0~-|--0-1-0---0-1-0-----0-----------0-1~-----------0------0--------|
D |------|----------------------------------------3-3--3---3--3---3------|
A |------|---------------------------------------------------------------|
E |------|---------------------------------------------------------------|
                                           Fm



E |-------1-----------------------------------------------------------3~-1~-----|
B |---3-4---3-----------------------------------------------1-3-4-3-1-----------|
G |-0---------0--------------0~--0-1-0---0-1-0---0-1-0----0---------------------|
D |--------------3-1~----1-3----------------------------------------------------|
A |-----------------------------------------------------------------------------|
E |-----------------------------------------------------------------------------|
          G        Cm                                                    Fm



E |------1~--1-3-1---1-3-1---1-3-1----------1---------------------------|
B |--3-4------------------------------3-4---0-----------------4---------|
G |-----------------------------------------0----0----1---0---5---------|
D |-----------------------------------------0----0----3---0---5---------|
A |----------------------------------------------2----3---2---3---------|
E |---------------------------------------------------------------------|

                                           Bdim  G    Fm  G   Cm




Version Facil (Aumentado 1 tono)/ Easy version (tuned 1 step up)

E |------------------------------------------------------------------|
B |------------------------------------------------------------------|
G |--2--------------2---------------2---------0-----2---------0------|
D |--0-----2--3~----0-----2--3~-----0------3--------0------3---------|
A |-----0--------------0---------------0---2-----------0---2---------|
E |------------------------------------------------------------------|
     Dm                             Dm/B


E |----------------------------0-1-0---------------------------------|
B |--------------------------3-------3-------------------------------|
G |--2-2---2-3-2---2-3-2---2-----------2-3~----0-0---0-2-0----0-2-0--|
D |------------------------------------------------------------------|
A |------------------------------------------------------------------|
E |------------------------------------------------------------------|
                                         Gm


E |----0-1-3-0---------------------------------------------0-1-0---5-3~-|
B |------------------------------------------------------3-------3------|
G |--2---------2-0-------0-2---2-3-2---2-3-2---2-3-2---2----------------|
D |----------------3---3------------------------------------------------|
A |---------------------------------------------------------------------|
E |---------------------------------------------------------------------|
            A       Dm                                           Gm


E |-0-1-3~---3-5-3---3-5-3---3-5-3-----0-1---3----0----3----0----1-----|
B |------------------------------------------2----2----3----2----3-----|
G |------------------------------------------0----2----3----2----2-----|
D |------------------------------------------2----2----5----2----------|
A |----------------------------------------------------5---------------|
E |----------------------------------------------------3---------------|





Version Avanzada / Advanced version
(Esta aumentada en 1 tono respecto al original / It's tuned 1 step up)


E |--------------------------------------------------------|
B |--------------------------------------------------------|
G |--2----------2-----------2-------0-----2-------0--------|
D |--0---2-3----0---2-3-----0----3--------0----3-----------|
A |----0----------0-----------0-(2)---------0-(2)----------|
E |--------------------------------------------------------|
    Dm                     Dm/B




E |------------------------------------0-1---0-------------------|
B |----------------------------------3------------3--------------|
G |--2-2------2-3-2---2-3-2--------2----(2)---------2--3---------|
D |----0---2--3-----------0---2-3----3---0---2-3--3-0-------0----|
A |------0------------------0--------------0--------------1------|
E |----------------------------------------------------3-(3)-----|
     Dm                                                Gm




E |--------------------------------0-1-3-0--------------------------|
B |-----------------------------------------------------------------|
G |--0-0-----0-2-0--0-2-0--------2---------2-0------0-2-----2-3-2---|
D |----------0----------------0----------2---2-3--3---0---2-3-------|
A |--------1----------------1----------0---4---5--------0-----------|
E |----3--(3)-----------3--(3)--------------------------------------|
                                       A       Dm




E |--------------------------0-1---0------5-3--------0-1-3-----3-5-3--|
B |------------------------3------------3-----------------------------|
G |--2-3-2--2-3-2--------2--------------------------------------------|
D |-------------0---2-3----3---0---2-3--3---------0-------------------|
A |---------------0--------------0--------------1-----------1---------|
E |----------------------------------------(3)-(3)-------3-(3)--------|

                                            Gm


E |--3-5-3--3-5-3--------0-1-3--------------------------------------|
B |----------------------------------------3------------------------|
G |------------------------------2---3--2--2------------------------|
D |------------------0---------2---2-------0---2-3----3-2-0---2-3---|
A |----------------1---------0--(0)----------0--------------0-------|
E |-------------3-(3)-----------------------------------------------|
                             A             Dm




E |------------------------------------0-1---0-------------------|
B |----------------------------------3------------3--------------|
G |--2-2------2-3-2---2-3-2--------2----(2)---------2--3---------|
D |----0---2--3-----------0---2-3----3---0---2-3--3-0-------0----|
A |------0------------------0--------------0--------------1------|
E |----------------------------------------------------3-(3)-----|
     Dm                                                Gm




E |--------------------------------0-1-3---0----------------------------|
B |---------------------------------------------------------------------|
G |--0-0-----0-2-0--0-2-0--------2-----------0-2-0-------0-2-----2-3-2--|
D |----------0----------------0------------2-----2-3---3---0---2-3------|
A |--------1----------------1----------0-4-----4---5---------0----------|
E |----3--(3)-----------3--(3)------------------------------------------|
                                       A           Dm




E |--------------------------0-1---0------5-3--------0-1-3-----3-5-3--|
B |------------------------3------------3-----------------------------|
G |--2-3-2--2-3-2--------2--------------------------------------------|
D |-------------0---2-3----3---0---2-3--3---------0-------------------|
A |---------------0--------------0--------------1-----------1---------|
E |----------------------------------------(3)-(3)-------3-(3)--------|




E |--3-5-3--3-5-3--------0-1--3---0---3---0---1-------------5----|
B |---------------------------2---2---3---2---3---------3-6------|
G |---------------------------0---2---3---2---2-------2----------|
D |------------------0--------2---2---5---2---0---0-3------------|
A |----------------1------------------5--------------------------|
E |-------------3-(3)-----------------3--------------------------|

                           C#dim  A   Gm  A   Dm




Y como les adelante en el titulo, he aqui un video mio tocando la version avanzada del nocturno de cuerdas en la guitarra :P Notaran que no es la mejor performance del mundo pero bueno, no estaba muy inspirado al momento de tocarla / As i told you in the title, here is a video of me playing the advanced version of the String Nocturne in the guitar  :P you will notice that the performance is not that great. Well, i wasn't inspired at that moment







Descargas / Downloads
(Lo mismo que arriba pero listos para imprimir :D / The same thing above but ready for printing :D )


Versiones Faciles / Easy versions
Tab
string nocturne (Tono original) 4shared
Tab string nocturne (Tono original) Mediafire
Tab String nocturne (1 tono aumentado) 4shared
Tab String nocturne (1 tono aumentado) Mediafire
Tab String nocturne (1 tono aumentado) (mirror lacuerda.net)


Version Avanzada / Advanced Version
Tab String nocturne avanzado (1 tono aumentado) 4shared
Tab String nocturne avanzado (1 tono aumentado) Mediafire







partituras/sheetmusic Tab en formato jpg  / Tab in jpg format

4shared




Mediafire
String1 string2 String3






partituras/sheetmusic Tab en formato pdf  / Tab in pdf format
pdf  String nocturne tab  4shared
pdf  String nocturne tab  Mediafire





Midi  
midi String nocturne guitarra by cogedor barato 4shared
midi String nocturne guitarra by cogedor barato Mediafire




Archivo guitar pro  
Guitar pro String nocturne guitar pro 4shared
Guitar pro String nocturne guitar pro Mediafire






 Enlaces relacionados
· Solfeos de Mime y Orfeo
· Midis y Partituras de Saint Seiya de Sigue brillando Cosmos
· Inauguramos este blog de saint seiya con partituras de Cogedor Barato (o sea yo :P)
· Este frances sabe tocar el piano...




·

10 comentarios:

Anónimo dijo...

bn

Anónimo dijo...

Es lo mejor!!! Soy nuevo en la guitarra y estoy practicando el string...
muy buenas las tablaturas:D

Cogedor_barato dijo...

Gracias. Los tabs que hago son pensados para gente que no es tan avanzada asi que espero que te sean de utilidad :D

Anónimo dijo...

hermoso chabon, no hay palabra mejor que esa... te luciste... graacias por el aporte...

Sebas Deathmask

Anónimo dijo...

muy buena pronto la podre tocar, gracias!! :D

Cogedor_barato dijo...

Gracias por comentar muchachos :)

Anónimo dijo...

estan excelentes los tab's , pero una consulta yo estoy empezando con la guitarra y me sale facil sacar la cancion sin poner acordes, pero que me aconsejas más usar acordes para aprender bien la cancion o seguir con las notas sueltas ? , con cual me resultaria mas facil sacarla completa?

Cogedor_barato dijo...

Yo recomendaria tocarla de la manera completa, es decir, con acompañamiento. Lo que si podes hacer es, quizas, omitir algunas notas del acompañamiento si te resultan demasiado dificiles. Tal vez, al no tener una solida base tecnica, cuando quieras tocar una secuencia no te salga bien y eso te fruste un poco. A medida que vayas dominando el tab, podes ir incluyendo esas notas que dejaste afuera. Cada quien a su propio ritmo.

Armando Avila dijo...

Excelente aporte, muchas gracias, pero tengo una duda XD, lleva capo? si sí en que traste sería?

Cogedor_barato dijo...

El tab de la version avanzada esta hecho en afinacion estandar pero con notas en 1 tono aumentado respecto al tema original. Si vos queres tocar esta pieza junto con la original, entonces deberias disminuir la afinacion de tu guitarra en 1 tono de modo que las cuerdas al aire te quedarian asi
Re
La#
Fa
Do
Sol
Re
Entonces, con esta afinacion en 1 tono disminuido, si tocas el tab avanzado va a sonar igual que en la ova :D

Espero haber sido claro. Saludos

Publicar un comentario en la entrada

comenten CHE!