miércoles, 25 de febrero de 2015

A millones de planetas y billones de agujeros negros...Tabsolfeo/solfa

Y asi empezaba el prologo de las ovas de Hades - Campos Eliseos y de fondo sonaba el violin introductorio del track "Bell of angelus prayer", uno de los mejores del disco OST 8.

And that's how the prologue of the Hades - Elysion chapter began. In the background you can hear the violin from the track "Bell of angelus prayer", one of the best from the OST 8 album.








Aunque quizas la escena mas memorable con este track sea la escena extra de la ova 11 de Hades-santuario, esa donde Seiya tiene la premonicion de su muerte en los campos Eliseos. / But maybe the most memorable scene with this track is the extra scene from the Ova 11 (Hades - Sanctuary) where we see Seiya having a premonition about his death in Elysion.







Pero, por supuesto, la primera escena donde se uso esta parte del track (todo el track en realidad :P) pertenece a la pelicula de Los caballeros del zodiaco contra Lucifer, cuando Moa crea la ilusion de Natassia para vencer a Hyoga. / But, of course, the first scene where it was used this part of the track (the complete track actually :P) belongs to the Lucifer movie "Warriors of the final holy battle", when Moa creates an illusion of Natassia for defeating Hyoga.







Al tab no lo quise recargar con notas adicionales de los acompañamientos de los acordes ya que al fin y al cabo, originalmente, es un solo de violin. Tengan en cuenta que tuve que bajarle una octava en la parte rapida ya que sino no llegaba con las notas por falta de trastes, aparte de que asi queda mas facil ;) / I didn't want to overload the tab with additional notes from the chords because, after all, originally is just a violin. Keep in mind that i lowered 1 octave on the fast part due to shortage of frets (and due to be easier this way ;)










Datos/Data
·Nombre Ingles internacional : Bell of Angelus prayer
·Nombre original japones : アンジェラスの祈りの鐘 
·Nombre japones en Romaji:  Anjierasu no inori no kane
·Traduccion japonesa: Chime of angelus' pray  / Repiqueteo del rezo del angel

·Disco/Album: OST 8

·Compositor: Seiji Yokoyama 横山菁児

·Nº de Track: 06

·Duracion : 3:45










Solfeo / Solfa

e7 b6 g6 e6 b5 e5 a5 a#5 b5 d#5,
d5 e5 f5 g5 a5 b5 c6 d6 e6 f6 g6 a6 b6 c7 d7 e7 f7
f5 g5 g#5 a#5 b5
b5 b6 f#6 d6 f#6 e6 b5 b5, e6 e6 a5 a5 c6 d6 e6 e6



Tab 

E |--11/12---7---0------------------------------------0-----5-7-8-10-12---13--|
B |------------8---0--------0-------------------0-1-3---6-8-------------------|
G |---------------------2-3-----------------0-2-------------------------------|
D |-------------------2-------1-------0-2-3-----------------------------------|
A |---------------------------------------------------------------------------|
E |---------------------------------------------------------------------------|



E |------------------------7-------2-0-------0-0------------0-----0---|
B |-----------0----------0---7---3-----0-0--------------1-3-----------|
G |----0-1-3-------------------------------------2-2------------------|
D |--3----------------------------------------------------------------|
A |-------------------------------------------------------------------|
E |-------------------------------------------------------------------|






Tutorial en guitar pro










Descargas / Downloads

Tab + solfeo / Tab + solfa
Tabsolfeo/solfa Bell of angelus prayer (intro)tab 4shared
Tabsolfeo/solfa Bell of angelus prayer (intro) tab Mediafire





partituras/sheetmusic Partitura en formato JPG / Sheet music in JPG format

4shared


Mediafire
bell angelus intro






partituras/sheetmusic Partitura en formato PDF / Sheet music in PDF format
pdf Bell of angelus prayer (intro) tab 4shared
pdf Bell of angelus prayer (intro) tab Mediafire




Archivo Guitar pro 5 / Guitar pro 5 file
Guitar pro Bell of angelus prayer (intro) guitar pro 4shared
Guitar pro Bell of angelus prayer (intro) guitar pro Mediafire




Midi
midi Bell of angelus prayer (intro) guitarra 4shared
midi Bell of angelus prayer (intro) guitarra Mediafire






mp3 Bell of Angelus Prayer Mediafire

Contraseña/Password: http://siguebrillandocosmos.blogspot.com







Escuchar / Listen













Enlaces relacionados

· Partituras de los OST de Saint seiya "Made in luxemburgo"
· Tutoriales OST!







·

No hay comentarios:

Publicar un comentario en la entrada

comenten CHE!