jueves, 20 de enero de 2011

"Remember Sadness" en guitarrita acustica Tab

Esta es una de las piezas que mas me gusta de toda la musica de Saint Seiya y una de las causas por la que este blog existe ;) De hecho, no soy el unico ya que esta es de las piezas mas recordadas y solicitadas por los fans. Recordar que esta cancion se llama "Remember Sadness" pero este tab es de la version que suena en el track "Far reaching Five Old Peaks". En algun post futuro voy a explicar mejor este tema del nombre ^^
En esta transcripcion tuve que bajarle 1 octava a lo que seria la mano derecha en el piano ya que de mantener la octava original, hacer el acompañamiento hubiera sido practicamente imposible.

This is one of the pieces from Saint Seiya that i like the most and one of the reasons of why this blog exists ;) In fact, i'm not the only one because this is one of the most memorable and requested pieces by the fans. You must have in mind that this song is called "Remember Sadness" but this tab is from the version in the track "Far reaching Five Old Peaks".  I will explain better this "name issue" in some future post ^^
In this transcription i had to get down 1 octave the part that should be the right hand in the piano because if not, the accompaniment should be impossible.


Que no saben cual es esta pieza? mmm  a ver si esta escena del recuerdo de ikki en la isla de la reina muerte donde esmeralda le cura sus heridas les refresca la memoria :'( / You don't know which piece is? mmmm let's se if this scene of ikki's flashback in the death queen island where emerald heals his wounds refresh your brain :'(












Datos/Data
·Nombre Ingles internacional : Far Reaching Five Old Peaks
·Nombre original japones : はるかなる五老峰
·Nombre japones en Romaji: Haruka naru goroohou
·Traduccion japonesa: The Faraway Five Peaks/ Los lejanos cinco picos

·Disco/Album:  Original Soundtrack III  (OST 3)

·Compositor: Seiji Yokoyama  横山菁児

·Nº de Track: 11

·Duracion : 3:34









Version Simple (Disminuida en 1 octava)Simple version ( 1 octave down)

E |--0-2-5-3-2-3------0-2-3-0--7-10/8----5-7-8-7-5-0-3----2-3-2------2-0---|
B |--------------0-------------------------------------------------0-------|
G |------------------------------------------------------------------------|
D |------------------------------------------------------------------------|
A |------------------------------------------------------------------------|
E |------------------------------------------------------------------------|
  



E |--0-2-5-3-2-3------0-2-3-0-7-10-/8----5-7-8-7-5-0-3------3-5-3-3--2----2--|
B |--------------0------------------------------------------------------2----|
G |--------------------------------------------------------------------------|
D |--------------------------------------------------------------------------|
A |--------------------------------------------------------------------------|
E |--------------------------------------------------------------------------|



                                                           
E |--0-7---------7---2-------------------2---3---------0-7-5-----5--7--8--7--|
B |------0-----0---0---0-0--------0-0--0-------0-----1-----------------------|
G |-----------------------------0--------------------------------------------|
D |--------------------------------------------------------------------------|
A |--------------------------------------------------------------------------|
E |--------------------------------------------------------------------------|





E |----0--3--2-----5-2----0-----------2-3-----|
B |--0------------------3---------------------|
G |-------------------------------------------|
D |-------------------------------------------|
A |-------------------------------------------|
E |-------------------------------------------|




Para tocar el tab en la octava correcta, simplemente sumenle 12 trastes a cada punteo del tab original/ To play the tab in the right octave, you must add 12 frets to each fret number of the original tab


E |--0-2-5-3-2-3----|          E|--12-14-17-15-14-15-----|
B |--------------0--|          B|--------------------12--|
G |-----------------|          G|------------------------|
D |-----------------|   --->   D|------------------------|
A |-----------------|          A|------------------------|
E |-----------------|          E|------------------------|






 Version Avanzada / Advanced version

E |--0-2-5-3-2-3-------------0-2-3----0-2-3-0--7-10/8---------0-5-7-8---|
B |--------------0---------0------------------------------0-1-----------|
G |----------------------0----------------------------------------------|
D |------------------2-4--------------------------------7---------------|
A |----------------2----------------------------------7-----------------|
E |--------------0----------------------------------5-------------------|
  



    
E |--5-7-8-7-5-0-3-----------0-3------2-3-2------2-0---------------0----|
B |------------------------0----------0--------0-----------------0------|
G |----------------------0---------------------------------0---0--------|
D |------------------2-4-----------4------4------------2-4---2----------|
A |----------------2-------------2----------2--------2------------------|
E |--------------0---------------------------------0--------------------|







E |--0-2-5-3-2-3-----------------0----0-2-3-0-7-10-/8---------0-5-7-8---|
B |--------------0-------------0--------------------------0-1-----------|
G |----------------------0---0------------------------------------------|
D |------------------2-4---4----------------------------7---------------|
A |----------------2----------------------------------7-----------------|
E |--------------0----------------------------------5-------------------|





                                                             
E |--5-7-8-7-5-0-3---------3-5-3-3--2---------2-----------0-7--------|
B |-----------------------------------------2-0-----------------0----|
G |----------------------0-------------------------------------------|
D |------------------2-4------------------------------2-4------------|
A |----------------2---------------------4----------2-----------6----|
E |--------------0---------------2-----2--------0-2-------------7----|





                                 
E |----7---2---------------------------2----3------------------------|
B |--0---0---0-0-------------0-0--0----3------0--------------1-------|
G |------------------------0---0----0--4------------------0----------|
D |----------------------------0------------------------2------------|
A |-------------[2]------2----------------2---3-----2--------3-------|
E |------------0---0-2-3------------------------0-3---3---------3----|





                    

E |----0-7-5---------------------5--7--8--7---------------0------0--3--2---|
B |--1------------------------------6-----8-------------0-----0--0--5--1---|
G |----------------------0-2-----5--7--9--9-----------0-------0--0--4--2---|
D |--------3-----------3----------------------------2---------2------------|
A |---------[3]----0-3-------3---------10---------2-----------2--2---------|
E |------------1-3---------1--------------0---0-3--------------------------|





   
E |--------------------5-2-----0-------------------2-3---|
B |--------1-----------3-3--3--0-----------------0-------|
G |--------------------4-4-----0---------------0---------|
D |----------2------4----------------------2-4-----------|
A |----0-2-3---3--2-------------[2]------2---------------|
E |--0-------------------------0---0-2-3-----------------|



Las notas que estan encerradas en [ ] son notas opcionales ( ver el archivo de texto descargable para mas detalles) / The notes enclosed in [ ] are optional notes (see the downloable text file for more details)








E'te aqui un video mio tocando la version avanzada. Suena un poco zombie la ejecucion pero ese dia me habia lastimado la mano (y por si no lo notaron uni 2 videos tambien :P). De todas maneras, confio en que uds. van a tocar mejor este tab ;D / Here is a video of me playing the advanced version. It sounds a little "zombie" but that day i hurt my hand (and if you didn't notice it, i merged 2 videos too :P ). Anyway, i trust in you to play a better performance of this tab ;D








Videotab :D









Descargas/Downloads 

Tabs con EXTENSAS explicaciones adicionales ;) / Tabs with EXTENSIVE additional explanations ;)
Tab Tab Remember Sadness (Far reaching five old peaks)
4shared
Tab Tab Remember Sadness (Far reaching five old peaks) Mediafire






partituras/sheetmusic Tab en formato jpg  / Tab in jpg format

4shared




Mediafire
Sadness1 sadness2







partituras/sheetmusic Tab en formato pdf  / Tab in pdf format
pdf Remember Sadness guitarra 4shared
pdf Remember Sadness guitarra Mediafire




Archivo guitar pro  
Guitar pro String nocturne guitar pro 4shared
Guitar pro String nocturne guitar pro Mediafire




Midi  
midi Midi remember sadness (Far reaching fivo old peaks) by cogedor_barato 4shared
midi Midi remember sadness (Far reaching fivo old peaks) by cogedor_barato Mediafire




mp3 Far reaching five Old Peaks 4shared
mp3 Far reaching five Old Peaks Mediafire


Contraseña/Password:  http://siguebrillandocosmos.blogspot.com







Enlaces relacionados
· Beethoven meets Saint seiya
· Partituras de los OST de Saint seiya "Made in luxemburgo"
· Midis y Partituras de Saint Seiya de Sigue brillando Cosmos
· Inauguramos este blog de saint seiya con partituras de Cogedor Barato (o sea yo :P)



·

17 comentarios:

toxic_trace_kreator dijo...

commpa! no le entiendoo!! a los ultimas 4 partes de las tabs!! ayudamee noo? mi correo es toxic_trace_kreator@hotmail.com

Cogedor_barato dijo...

yo creo que queda bastante claro con el video, ademas de tener en mente el video original. De todas maneras no os desespereis, lo arreglamos por mail XD

Anónimo dijo...

Mierda!! TEnia mucho tiempo buscando esta tablatura.... muchas gracias

Cogedor_barato dijo...

yo tambien la busque por mucho tiempo y como no la encontre, me decidi a hacerla :P

un saludo y gracias por comentar

Anthony8525 dijo...

uff excelente gracias brother!!!...

Cogedor_barato dijo...

Gracias amigo. Espero que te hayan servido mucho :D

amarilis dijo...

nunca me he olvidado de los cballeros del zodiaco en especial estas escenas y aun mas todavia el transfondo musical...debe ser maravilloso poner tocar una guitarra...saludos

Jorge Amaral Cardenas Vasquez dijo...

genial eres lo maximoo!!!

Cogedor_barato dijo...

Amarilis, tocar guitarra no es dificil. El violin si que es dificil :S

Gracias jorge!

Anónimo dijo...

muchisimas gracias esta es una de las canciones q mas me gustan de la saga te felicito y de verdad muchas muchas gracias

Cogedor_barato dijo...

Gracias por las palabras. Si que es una pieza hermosa :D

Anónimo dijo...

Crack!!! una eternidad buscando esta pieza(arte) muchas gracias

Cogedor_barato dijo...

Se exactamente lo que se siente cuando uno encuentra esa partitura por la que revolvio cielo y tierra. A practicar nomas :D

Anónimo dijo...

Chabon te ganaste el cielo con lo que dajaste, mil gracias hermano ;)

Cogedor_barato dijo...

jaja de nada che. Pero cuidado!! el cielo es el sitio mas peligroso de los 6 infiernos :P

Anónimo dijo...

Gracias papaaaaa!!!!!! reviviendo la nostalgia ;)

Cogedor_barato dijo...

De nada che. De la nostalgia vivimos :P

Publicar un comentario en la entrada

comenten CHE!