martes, 1 de febrero de 2011

Acordes de Soldier Dream (vive tus sueños y llegaras al...Saint Seiya) acordes/chords

Despues de unas merecidas vacaciones (jeje) el blog vuelve a la accion. De hecho las vacaciones habian empezado los primeros dias de enero pero me maneje como para hacer un par de posts :D en fin....
Soldier dream es otra de las canciones vocales miticas de Saint seiya (Algunos la consideran incluso mejor que Pegasus Fantasy ). Es la segunda cancion mas versionada por los fans en sus videos de internet y una fija en el repertorio de Hironobu Kageyama. Es un poco mas "compleja" que Pegasus Fantasy ya que tiene mas acordes y algunos deben tocarse bastante rapido, pero aun con todo sigue siendo una cancion facil sin acordes raros :D Aclaro que yo coloque los acordes en la tonalidad original. Si quieren los acordes en tonalidades mas sencillas, vean el archivo de texto de acordes :D 

After a well deserved holiday (haha) the blog returns to action. In fact the holiday started the first days of january but i managed to make a couple of posts :D anyway...
Soldier Dream is another mythical vocal song from Saint Seiya series (Some consider it even better than Pegasus Fantasy ). It's the second more versioned  song by the fans in their internet videos and an  immovable one in Hironobu Kageyama's repertory. It's a little more "complex" than Pegasus Fantasy because it has more chords and some of them must be played fast, even so it's an easy song without "rare" chords ^^  I must clarify that the chords here are in the original tone. If you want easier chords, see the chord text file :D






Datos/Data
·Nombre Ingles internacional : Soldier Dream
·Nombre original japones : 聖闘士 [セイント] 神話
·Nombre japones en Romaji: Seitoushi [Seinto] Shinwa
·Traduccion japonesa: Saint Myth / Mito del Santo (caballero)

·Disco/Album:  HITS III

·Compositor: Hiroaki Matsuzawa 松澤浩明

·Banda / Band: Hironobu Kageyama + Broadway

·Nº de Track: 1

·Duracion : 3:35






INTRO
E |--------------------------------------------------------------|
B |--7---6---7---6--7---6---7---6--7---6---7---6---7---6---7-6---|
G |----8---8---8------8---8---8------8---8---8---8---8---8-------|
D |--------------------------------------------------------------|
A |--------------------------------------------------------------|
E |--------------------------------------------------------------|
    D#m            C#              B


E |-----------------------------------------|
B |---------------------------6-7-7-7-9-----|
G |--/8--\6---------------6-8---------------|
D |----------9-8~--6-8-9~-------------------|
A |-----------------------------------------|
E |-----------------------------------------|
    D#m        C#      B      (D#m   A#7)



VERSO1
 D#m     (C#) B         (A#m)
Soratakaku   kakageyoo
     G#m     C#      B        D#m    A#(7)
Michi wo terasu inochi no kirame ki
D#m     (C#) B        (A#m)
Unmei ni    hikareru
     G#m      C#      B     C#      D#m
Sore wa seiza no shinwa sa Soldier Dream



PRECORO1
C#            D#m
Toki hanate yo   moeru kosumo
     C#       F#      G#m-A#m B
Shoori wo idaku asu no ta-me ni



CORO1
 F#  (C#)D#m  B
Saint Seiya
        C#      A#m      D#m
Mezasu kiboo no iro wa
G#m             B    C#
Kedakai hodo utsukushii
 F#   (C#) D#m 
Saint Seiya
B        C#       A#m    D#m
Tsubasa wa ten wo kakeru
G#m              B      C#   

Erabareta mooshigo no yoo ni


INTERLUDIO
E |-----------------------------------------|
B |---------------------------6-7-7-7-9-----|
G |--/8--\6---------------6-8---------------|
D |----------9-8~--6-8-9~-------------------|
A |-----------------------------------------|
E |-----------------------------------------|
    D#m        C#      B      (D#m   A#7)



VERSO 2
  D#m     (C#) B         (A#m)
Kegarenaki    hitomi wa
   G#m     C#      B        D#m    A#(7)
Kurai yami o tsuranuku ryuusei
 D#m     (C#) B         (A#m)
Yuujoo no     akashi wa
   G#m      C#      B    C#      D#m
Onaji roman wo motomeru Soldier Dream



PRECORO 2
C#            D#m
Tachidomaru na  wakaki yuusha
   C#        F#      G#m-A#m B
Mirai wo habamu mono wa nai sa



CORO 2
 F#  (C#)D#m  B
Saint Seiya
     C#       A#m      D#m
Ooroka na Pegasasu yo
G#m             B    C#
Joonetsu hodo uruwashii
 F#  (C#) D#m 
Saint Seiya
B      C#          A#m    D#m
Yûki chikara shinjitsu
G#m            B      C#   
Maiagare michibiki no mama ni
 



E |--------------------------------------------------------------|
B |--7---6---7---6--7---6---7---6--7---6---7---6---7---6---7-6---|
G |----8---8---8------8---8---8------8---8---8---8---8---8-------|
D |--------------------------------------------------------------|
A |--------------------------------------------------------------|
E |--------------------------------------------------------------|
    D#m            C#              B
mama ni...



SOLO (=VERSO): 
D#m C# B A#m G#m C# B D#m A#7
D#m C# B A#m G#m C# B C# D#m



PRECORO 2
C#             D#m
Toki hanate yo     moeru kosumo
     C#       F#       G#m-A#m B
Shoori wo idaku asu no ta-me ni



CORO 1
F#   (C#)D#m  B
Saint Seiya
        C#      A#m     D#m
Mezasu kiboo no iro wa
G#m             B     C#
Kedakai hodo utsukushii
 F#  (C#) D#m 
Saint Seiya
B        C#       A#m     D#m
Tsubasa wa ten wo kakeru
G#m              B      C#        
Erabareta mooshigo no yoo ni



OUTRO
E |---------------------------------------------|
B |--7---6---7---6--7---6---7---6--7---7-6------|
G |----8---8---8------8---8---8------------8----|
D |---------------------------------------------|
A |---------------------------------------------|
E |---------------------------------------------|
    D#m            C#              B      D#m




Los acordes dentro de los parentesis ( ) son opcionales. Existen dentro de la cancion pero deben tocarse bastante rapido, afectando la dinamica de la cancion / The chords inside the ( ) means that they are optional. This chords are in the song but they must be played fast and affects the dynamics of the song.








Descargas / Downloads


Aca se pueden bajar los mismos acordes + Acordes alternativos (mas faciles :P) /Here you can download the same chords + Alternatives chords (easier chords :P)
acordes/chords Acordes Soldier Dream 4shared
acordes/chords Acordes Soldier DreamMediafire






mp3 Soldier Dream 4shared
mp3 Soldier Dream Mediafire

Contraseña/Password: http://siguebrillandocosmos.blogspot.com








Escuchar / Listen








Enlaces relacionados
· Tabs tabs de soldier Dream
· Feliz navidad con el Piano Fantasia x 2 !!
· Magia pianistica de la mano de Absolutepitcher
· Las partituras oficiales de Saint Seiya
· Partituras de los OST de Saint seiya "Made in luxemburgo"


·

No hay comentarios:

Publicar un comentario en la entrada

comenten CHE!