sábado, 26 de febrero de 2011

Tabs tabs de soldier Dream Tab

He aqui el Tab version "TV Size" de Soldier Dream. La version facil esta 1 octava mas baja para que verdaderamente sea "facil" y tambien esta en el tono "facil" mas usado por la mayoria de los fans (el tono de las version instrumental orquestal). Este tab es respecto de la cancion vocal original y no de la version instrumental donde una guitarra electrica reemplaza a la voz. Los mas atentos notaran que puse los tabs del intro aca tambien. En realidad los quite del otro post y los deje aca para que todo sea mas homogeneo :)

Here is the "TV Size" version tab from Soldier Dream. The easy version is in the "easy" tone used by most fans (the tone from the instrumental orchestral version) and is 1 octave lower because that way is really an "easy" version. This tab is from the original vocal song and not from the instrumental version where an electric guitar replace the voice. The most attentive ones will notice that i put here the tabs from the intro too. In fact, i cut it from the other post and pasted here so everything is more homogeneous :)








Datos/Data
·Nombre Ingles internacional : Soldier Dream
·Nombre original japones : 聖闘士 [セイント] 神話
·Nombre japones en Romaji: Seitoushi [Seinto] Shinwa
·Traduccion japonesa: Saint Myth / Mito del Santo (caballero)

·Disco/Album:  HITS III

·Compositor: Hiroaki Matsuzawa 松澤浩明

·Banda / Band: Hironobu Kageyama + Broadway

·Nº de Track: 1

·Duracion : 3:35










INTRO
E |--------------------------------------------------------------|
B |--7---6---7---6--7---6---7---6--7---6---7---6---7---6---7-6---|
G |----8---8---8------8---8---8------8---8---8---8---8---8-------|
D |--------------------------------------------------------------|
A |--------------------------------------------------------------|
E |--------------------------------------------------------------|
    D#m            C#              B


E |-----------------------------------------|
B |---------------------------6-7-7-7-9-----|
G |--/8--\6---------------6-8---------------|
D |----------9-8~--6-8-9~-------------------|
A |-----------------------------------------|
E |-----------------------------------------|
    D#m        C#      B      (D#m   A#7)




Version Facil / Easy Version
(medio tono mas arriba que el tono original) / (half step up from the original tone)

VERSO
E |-------------------------------------------------------------|
B |-------------------------------------------------------------|
G |----0-2---0--0-0----------------0-2--------------0-2-0-------|
D |--------4--------4-2------0-2-------4--0-0-2-4----------4----|
A |--2--------------------3-------------------------------------|
E |-------------------------------------------------------------|
    Soratakaku kakageyoo Michi wo terasu inochi no kirame ki


E |--------------------------------------------------------------|
B |--------------------------------------------------------------|
G |----0-2---0--0-0----------------0-2---------0--2--------------|
D |--------4--------4-2-----0-2--------4----0--------4-2-0---2---|
A |--2--------------------3--------------------------------------|
E |--------------------------------------------------------------|
     Un mei ni hikareru  Sore wa seiza no shinwa sa Soldier Dream



PRECORO
E |--------------------------------------------------------------|
B |--------------------------------------------------------------|
G |------------------------0---------------------------------0---|
D |--0-0----0-2-4---2-2-4----4-2---2-0-------2-----------2-4-----|
A |-------0------------------------------0-0---2--2-0------------|
E |---------------------------------------------------3----------|
    Toki hanate yo  moeru kosumo Shoori wo idaku asu no tameni



CORO
E |----------------------------------------------------------------|
B |----------------------------------------------------------------|
G |----------0------0---2------------------------------------------|
D |--0-----0----2-4---4---4-2--2-0-0---2--------------0-2-2-0-2-4--|
A |------2-------------------------------3-3-2-3-3--3--------------|
E |----------------------------------------------------------------|
   Saint Seiya Mezasu kiboo no iro wa  Kedakai hodo utsuku  shii



E |-----------------------------------------------------------------------|
B |-----------------------------------------------------------------------|
G |----------0-------0----2-------------------------------------------0---|
D |--0-----0-----2-4---4----4-2--2-0-0---2--------------0-2-2-0-2---4-----|
A |------2---------------------------------3-3-2-3----3-------------------|
E |-----------------------------------------------------------------------|
   Saint Seiya Tsubasa wa ten wo kakeru  Erabareta    mooshigo no yoo ni





 Version Avanzada / Advanced Version
(Tono original) / (Original tone)

VERSO
E |-------------------------------------------------------------|
B |----7-9-6-7-6h7-7-6--------------7-9-6---------6--7-9-7-6----|
G |--------------------8------6-8~---------6-6-8----------------|
D |--8---------------------9------------------------------------|
A |-------------------------------------------------------------|
E |-------------------------------------------------------------|
    Soratakaku  kakageyoo Michi wo terasu inochi no kirame ki


E |----------------------------------------------------------------|
B |----7-9-6-7-6h7-7-6-------------7-9-6------7--9--6--------------|
G |--------------------8----6-8~------------6----------8-6--8------|
D |--8--------------------9----------------------------------------|
A |----------------------------------------------------------------|
E |----------------------------------------------------------------|
      Unmei ni  hikareru Sore wa seiza no shinwa sa Soldier Dream



PRECORO
E |--------------------------------------------------------------|
B |-------------6-------6--7-6------------------------------6-7--|
G |--6-6----6-8-----8-8--------8---8-6-------6------------8------|
D |-------6-----------------------------6--6---8--8-6------------|
A |---------------------------------------------------9----------|
E |--------------------------------------------------------------|
    Toki hanate yo  moeru kosumo Shoori wo idaku  asu no tameni



CORO
E |-----------------------------------------------------------------|
B |----------7----6-7-6-9-6-------------------------------------6---|
G |--6-----6----8------------8-8/6-6--8--------------6-8-8--6-8-----|
D |------8------------------------------9-9-8-9-9--9----------------|
A |-----------------------------------------------------------------|
E |-----------------------------------------------------------------|
   Saint Seiya Mezasu kiboo no iro wa Kedakai hodo utsuku   shii



E |------------------------------------------------------------------------|
B |----------7-----6-7--6-9-6-------------------------------------6-6h7----|
G |--6-----6-----8-------------8-8/6-6---8------------6-8-8-6-8------------|
D |------8---------------------------------9-9-8-9--9----------------------|
A |------------------------------------------------------------------------|
E |------------------------------------------------------------------------|

   Saint Seiya Tsubasa wa ten wo kakeru  Erabareta  mooshi go no yoo ni



OUTRO
E |---------------------------------------------|
B |--7---6---7---6--7---6---7---6--7---7-6------|
G |----8---8---8------8---8---8------------8----|
D |---------------------------------------------|
A |---------------------------------------------|
E |---------------------------------------------|
    D#m            C#              B      D#m











Descargas / Downloads

Archivo de texto con tabs adicionales / Text file with additional tabs 
Tab Soldier Dream Tabs 4shared
Tab Soldier Dream TabsMediafire





mp3 Soldier Dream 4shared
mp3 Soldier Dream Mediafire

Contraseña/Password: http://siguebrillandocosmos.blogspot.com





Enlaces relacionados
· Magia pianistica de la mano de Absolutepitcher
· Acordes de Soldier Dream (vive tus sueños y llegaras al...Saint Seiya)



·

2 comentarios:

ACE PUÑO DE FUEGO dijo...

grax me ayudo mucho

Cogedor_barato dijo...

que bueno q te haya servido :D

Publicar un comentario en la entrada

comenten CHE!