jueves, 10 de febrero de 2011

Tabs de Pegasus Fantasy (Melodia) Tab

Volvemos con Pegasus Fantasy (y algo me dice que no sera la ultima vez :P). En este caso es el tab de la melodia. Notaran que el punteo es de la primera parte de la cancion completa, o sea, es la version "TV Size". Tambien aclaro que este tab es respecto de la cancion original y no de la version instrumental donde una guitarra electrica reemplaza a la voz. La version instrumental le agrega muchos mas efectos a la interpretacion y algunos son complejos, sin embargo,  este tab seria el mismo para ambas versiones asi que una vez aprendido el tab, pueden lanzarse a tratar de emular la instrumental :D

We're back with Pegasus Fantasy (and something tells me that it won't be the last time :P). In this case, it's the tab from the melody. You will notice that the tab is from the first part of the whole song, like the "TV Size" version. Also you need to know that this tab is from the original song and not from the instrumental version where an electric guitar replace the voice. The instrumental version adds many more effects in the performance and some are complex, however, this tab would be the same for both versions so once you learn this tab, you can try to take off the instrumental one :D 








Datos/Data
·Nombre original japones : ペガサス幻想
·Nombre japones en Romaji: Pegasasu Gensou (Fuantaji)
·Traduccion japonesa: Pegasus illusion(Fantasy) / Ilusion (Fantasia) de Pegaso

·Disco/Album:  HITS I

·Compositor: Hiroaki Matsuzawa 松澤浩明 / Nobuo Yamada (NoB) 山田 信夫

·Banda: Make-Up

·Nº de Track: 1

·Duracion : 3' 43''








Referencias /References 
h = hammer (martillo) --> Video Hammer
/ = slide (deslizamiento) -->
Video Slide
~ = vibrato (vibracion. Tambien se lo representa con "v") -->
Video Vibrato
^ = bend (estirar. Tambien se lo representa con "b") --> Video Bend


Facil / Easy

VERSO

E |-----------0--0-----------------------------------0-0--0-3-4-----------0--|
B |----0-1-3--------3-3-1--3-1-0----0-1--0-1-3--1-3-----------------0-1-3----|
G |--2----------------------------2-------------------------------2----------|
D |--------------------------------------------------------------------------|
A |--------------------------------------------------------------------------|
E |--------------------------------------------------------------------------|
    Dakishime ta kokoro no kosumo Atsuku moyase ise ki wo oko se Kizutsuita



E |--0------------------------------0---------------|
B |----3-3--1-3-1-0------0-1-0---1----3-1-0-0-------|
G |--------------------2-------2--------------0-2---|
D |-------------------------------------------------|
A |-------------------------------------------------|
E |-------------------------------------------------|
    mama ja i nai to Chikaa i atta haruka na  ginga


PRECORO
E |--1-0-0-----0--------------3-1-0------------------------------------------|
B |--------3-----3-3----------------3--1-----0-1-0---1--0----3-1-0-3---------|
G |--------------------0-0-0---------------2-------2------2------------0-0-0-|
D |--------------------------------------------------------------------------|
A |--------------------------------------------------------------------------|
E |--------------------------------------------------------------------------|
    Pegasasu fuantaji sou sa yume dake wa Dare mo uba e-nai kokoro no tsubasa


E |------------|
B |------0-----|
G |--1-2-------|
D |------------|
A |------------|
E |------------|
    dakara


CORO
E |--------0-0-----0-----------0----------------3-1--0-0---0-------0--|
B |--1-3---------3---3-1-0--------0-1----3-3--3----------3-----1-3----|
G |------------------------2-2----------------------------------------|
D |-------------------------------------------------------------------|
A |-------------------------------------------------------------------|
E |-------------------------------------------------------------------|
    Saint Seiya shou nen wa minna Saint Seiya ashita no yuusha uju ye



E |--------0-0-----0------------0-------------------------1-0---0---|
B |--1-3---------3---3-1--0----------0-1---3-3--0-1-3-3-------3-----|
G |-------------------------2-2-------------------------------------|
D |-----------------------------------------------------------------|
A |-----------------------------------------------------------------|
E |-----------------------------------------------------------------|
    Saint Seiya Pegasasu no you ni  Saint Seiya ima koso habatake


Esta version facil esta afinada 1 1/2 tono mas bajo respecto al original / This easy version is tuned 1 1/2 step down compared with the original.



Avanzado / Advanced

VERSO   
E |------------------------------------------------------------------6-6h7-|
B |----3-4-6-6/8--8/6-6-6-4-4h6-4-3------3-3h4--3-4-6--4-6-6/8-8---8-------|
G |--5---------------------------------5-----------------------------------|
D |------------------------------------------------------------------------|
A |------------------------------------------------------------------------|
E |------------------------------------------------------------------------|
    Dakishime ta   kokoro no kosumo     Atsuku  moyase ise  ki wo   oko se  

         

E |-----------------------------------------------------3---------------|
B |----3-4-6-6/8--8/6-6-6--4-4h6-4-3------3-3h4--3---4----6-4-3-3-------|
G |--5----------------------------------5----------5--------------3-5---|
D |---------------------------------------------------------------------|
A |---------------------------------------------------------------------|
E |---------------------------------------------------------------------|    
     Kizutsui  ta  mama ja  i-nai-to   Chika -a -iatta haruka na ginga


PRECORO
E |--4-3-3-----3--------------6-4-3-----------------------------------|
B |--------6-----6-6-----------------6-4----3-3h4-3---4-3----6-4-3-6--|
G |-------------------3-3-3---------------5---------5-----5-----------|
D |-------------------------------------------------------------------|
A |-------------------------------------------------------------------|
E |-------------------------------------------------------------------|
    Pegasasu fuantaji sou sa yume dake wa Dare mo uba-e-nai kokoro no


E |------------------|
B |------------------|
G |--3-3-3-4--5--/7--|
D |------------------|
A |------------------|
E |------------------|
   tsubasa da kara


CORO  
E |----------------3------------3----------------6-4-3-3-----3-------------|
B |--4-6-6/8-8---6---6--4-3---------3-4--6-6---6----------6-----4-6-6/8----|
G |-------------------------5-5--------------------------------------------|
D |------------------------------------------------------------------------|
A |------------------------------------------------------------------------|
E |------------------------------------------------------------------------|
    Saint Seiya shounen wa  minna  Saint Seiya ashita no yuusha uju   ye


E |--------3-3----3-------------3-------------------------4-3---3----|
B |--4-6--------6---6-4--3-----------3-4--6-6--3-4-6-6--------6------|
G |-------------------------5-5--------------------------------------|
D |------------------------------------------------------------------|
A |------------------------------------------------------------------|
E |------------------------------------------------------------------|
    Saint Seiya Pegasasu no you ni  Saint Seiya ima koso habatake


En el archivo de texto descargable hay un segundo tab "avanzado" con otras posiciones en tonalidad original / In the downloable text file there is a second "advanced" tab with another positions in original tone.








Descargas/Downloads

Archivo de texto con los tabs / Text file with the tabs
Tab Pegasus fantasy tab 4shared
Tab Pegasus fantasy tab Mediafire






mp3 Pegasus Fantasy  (5,2 mb / 192 kbps) 4shared
mp3 Pegasus Fantasy  (5,2 mb / 192 kbps) Mediafire





Escuchar/Listen











Enlaces relacionados
· Acordes de pegasus Fantasy (Ya era hora :)
· Un Pegasus Fantasy magnifico en piano
· Este frances sabe tocar el piano...
· Magia pianistica de la mano de Absolutepitcher
· Partituras (solfeos) para Flauta del tema de Abel y Pegasus Fantasy
· Disco "Saint Seiya - Hits" (El primero de la trilogía)
· Partituras de los OST de Saint seiya "Made in luxemburgo"




·

6 comentarios:

fernandolafuente dijo...

tremendo tu aporte gracias

Cogedor_barato dijo...

Gracias por visitar el blog y comentar :D

dogmaxter dijo...

Puedes revivir los links ya que me sale que no es valido el archivo .......

Cogedor_barato dijo...

Links arreglados :)

Anónimo dijo...

que bueno que esta lo que haces cogedor_barato no aces otro tabs aparte de los de saint seiya osea de otros anime

Cogedor_barato dijo...

En realidad no, a no ser que tenga tiempo libre o me guste mucho la cancion. Suena medio elitista pero bueno, solo saint seiya me inspira :)

Publicar un comentario en la entrada

comenten CHE!