miércoles, 3 de noviembre de 2010

Acordes de "Can't say good bye"

He aqui una de las mejores canciones del disco HITS Collections I , la cual fue usada en el capitulo 13 durante la batalla entre Shiryu y el dragon negro. Sencillita :P

Here is one of the bests songs from the album HITS Collections I, It was used in the episode 13 during the battle between Shiryu and the black Dragom. Very easy too :P














Datos/Data
·Nombre Ingles internacional : Can't Say Good Bye
·Nombre original japones : さよならのかわりに
·Nombre japones en Romaji: Sayonara no kawari ni
·Traduccion japonesa: Instead of goodbye / En lugar de la Despedida

·Disco/Album:  Original Soundrack I   (OST I)

·Compositor: Seiji Yokoyama   横山 菁児

·Nº de Track: 2

·Duracion : 4' 36''







Acordes / Chords

INTRO
                                 Try  to  re   mem ber  on-ce  a-gain
E |----8~--7-----7---5---5-------(5)------(7)(7)(5)(5)--(5)(7)---(7)|
B |-----------8-----------------------(8)---------------------------|
G |-----------------------------------------------------------------|
D |-----------------------------------------------------------------|
A |-----------------------------------------------------------------|
E |-----------------------------------------------------------------|
       Am  G    F                Am    G       F                G


                               
E |----8~--7-----7---5---5--------8--7--10--10--8--8---8--10--10-----|
B |-----------8------------------------------------------------------|
G |------------------------------------------------------------------|
D |------------------------------------------------------------------|
A |------------------------------------------------------------------|
E |------------------------------------------------------------------|

       Am  G     F             Am    G      F             G 

VERSO1
Am         G         F
Nemu o tojite omoide su no sa
Am        G     F
Sora takaku kaketa hibi
Am        G          F
Kanashimi no beeru o nuide
Am       G       F   G
Mitsume aeta nakamatachi
F             Am          F
Kono inochi hateru toki mo
(Fmaj7)     G       Am  F G
Shizuka ni waraeru



CORO
Am    G       F
Can't say goodbye, my friend
Am    G       F       G
Can't say you anymore
Am  G    F
Try to remember
Am  G    F             G
Try to remember once again



VERSO2
Am     G           F
Nozomanai tatakai sae mo
Am      G     F
Norikoeta oretachi sa
Am      G          F
Tatoe ima hatarete ite mo
Am       G      F   G
Kitto itsuka aeru kara
F             Am        F
Sono mune de inottekure
(Fmaj7) G      Am   F G
Wakare no kawari ni




CORO
Am    G       F
Can't say goodbye, my friend
Am    G       F       G
Can't say you anymore
Am  G    F
Try to remember
Am  G    F             G
Try to remember once again



INTERMEDIO: (Em Bm7 C)x2 D E


SOLO: (Am F G E7 Am F G)x2


CORO FINAL
Am     G       F
Can't say goodbye, my friend
Am     G      F       G
Can't say you anymore
Am   G    F
Try to remember
Am        F     G
Try to remember
Am     G       F
Can't say goodbye, my friend
Am     G      F       G
Can't say you anymore
Am   G    F
Try to remember
Am     G       F                 G
Can't say goodbye, my friend anymore












Descargas/Downloads


Aca se pueden bajar los mismos acordes + explicaciones adicionales + Acordes alternativos /Here you can download the same chords + aditional explanations + Alternatives chords.
acordes/chordsAcordes Can't Say Good bye 4shared

acordes/chordsAcordes Can't Say Good bye Mediafire






mp3 Can't Say Good Bye  
(6,33 mb / 192 kbps) 4shared
mp3 Can't Say Good Bye (6,33 mb / 192 kbps) Mediafire


Contraseña/Password: http://siguebrillandocosmos.blogspot.com










Escuchar / Listen











Enlaces relacionados
· Disco "Saint Seiya - Hits" (El primero de la trilogía)
· Informe: Canciones Vocales en los Capitulos de Saint Seiya
· Acordes de Friends in the Sky :DD




·

No hay comentarios:

Publicar un comentario en la entrada

comenten CHE!