sábado, 4 de junio de 2011

Tabs del Ending de Hades santuario (kimi to onaji aozora) Tab

Este tab resulto un poco mas facil que el de Chikyuugi aunque tambien tuvo su dificultad. Al parecer las canciones cantadas por mujeres son mas complejas vocalmente hablando :P Recordar que este tab es el de la version "Tv Size" y que la misma es diferente a la version full que viene en el single. Vocalmente no estoy seguro de que haya diferencias pero les aviso por las dudas.

This tab was a little easier than the one for Chikyuugi even when it was difficult too. Looks like the songs sung by women are very complex, vocally speaking :P Remember that this tab is from the "Tv Size" and is different than the "full version" that comes with the single. Vocally i'm not sure about diferences between them but i warn you just in case...












Datos/Data
·Nombre original japones : 君と同じ青空人
·Nombre japones en Romaji: Kimi to onaji aozora
·Traduccion japonesa:The Same Blue Sky with You/ El mismo cielo azul contigo

·Disco/Album:  Saint Seiya Hades Single "Chapter Sanctuary"

·Compositor: Yumi Matsuzawa 松澤 由美

·Letra: Yumi Matsuzawa 松澤 由美 / Rei Takai 高井うらら

·Nº de Track: 3

·Duracion : 1:35









Version facil / Easy version
(Aumentado en 2 1/2 Tonos // 2 1/2 steps up)
(Disminuido en 3 1/2 Tonos // 3 1/2 steps down)

INTRO
E |---------------------------------------------------------------------------|
B |------3--------3--------3--------3--------3--------3--------3--------3-----|
G |--2-0---0--2-0---0--2-0---0--2-0---0--2-0---0--2-0---0--2-0---0--2-0---0---|
D |---------------------------------------------------------------------------|
A |---------------------------------------------------------------------------|
E |--------------------------------------3------------------------------------|



VERSO
E |---------------------------------------------|
B |------0-----------------0--------------------|
G |--2-0----0-2--0--2-0-2-----0---------(0------|
D |------------------------------0--2------4)---|
A |---------------------------------------------|
E |---------------------------------------------|
    muka-i kaze ni tobitatsu ko no ha  ( mmmmm )



E |-------------------------------------------------------------|
B |----3-1----1-0-0------------0--------------------------------|
G |-----------------2--0---0-------------------------0--2--2-2--|
D |--0-------------------4-------2-0---2-2---0-2-4--------------|
A |-------------------------------------------------------------|
E |-------------------------------------------------------------|
    sukoshi houko-u wo kaete   aruko---u u  kimi ga te wo hiku



PRECORO
E |--------------------------------------------------------|
B |--0---------------0--0---0---------------3-2-3--(0------|
G |----2-2-0-0--2-0-----------2-2-0--0--2-0-----------0)---|
D |--------------------------------------------------------|
A |--------------------------------------------------------|
E |--------------------------------------------------------|
    nanigena-i hibi ni mo  shiawase wo nosete-e    (yeeh)



E |---------------------------------------------------------------------|
B |--0----------------------------------------------------0--1-0--------|
G |----2-2-0-0---0---0--2-1--1------------------0-0-2------------2--0---|
D |----------------4-----------2--2--0---0-2-4----------0---------------|
A |---------------------------------------------------------------------|
E |---------------------------------------------------------------------|
    wasureteta   om-o--i ga kaze no you  ugokidashita  kimi no koe de



CORO
E |--0---------------------------0----------------0-2-3-----------|
B |----3-3-1--1-0------------------3---3-1-1-0------------0-------|
G |---------------2--2-0-2-0-0-----------------2------------2-0---|
D |---------------------------------------------------------------|
A |---------------------------------------------------------------|
E |---------------------------------------------------------------|
    sunao ni  warai  aeru koto  nante subarashii kimochi daro-u



E |--0---------------------------------0---------------0--2-3--|
B |----3-3--1-1-0------------------------3-3--1-1-0--0---------|
G |----------------2--2--0--0-2-0---0--------------------------|
D |------------------------------------------------------------|
A |------------------------------------------------------------|
E |------------------------------------------------------------|
     aruku hayasa ni ki wo tsukete  a-wasete kureru yasashisa



E |--5-3-2--3-2-2-3-3----0-------------------|
B |-------------------------3-3-1-1-0--------|
G |--------------------0--------------2-2-0--|
D |------------------------------------------|
A |------------------------------------------|
E |------------------------------------------|
    ni a-i  afureru-u kimi to onaji a-ozora








Version avanzada / Advanced version
(Tono original / Original tone)

INTRO
E |------5---------5--------5---------5---------5---------5---------5---------5---|
B |--5---------5--------5---------5---------5---------5---------5---------5-------|
G |----7---7----7---7-----7---7-----7---7-----7---7-----7---7-----7---7-----7---7-|
D |-------------------------------------------------------------------------------|
A |-----------------------------------------5-------------------------------------|
E |-------------------------------------------------------------------------------|



VERSO
E |---------------------------------------------------|
B |--------7----5-----5---5-5h7-----------------------|
G |--7/9-7----7----7----7---------7---------(6h7-6)---|
D |---------------------------------7-7h9-------------|
A |---------------------------------------------------|
E |---------------------------------------------------|
      muka-i kaze ni tobi-ta-tsu ko no  ha  ( mmmmm )



E |----5----------------------------------------------------------------|
B |-------8--8-8r7-7-5-------5h7-------------------------------5--5--5--|
G |--------------------7-6-7-----4---------------------4--6-7-----------|
D |--7-----------------------------7-7h9-(11/9/7/9)--7------------------|
A |---------------------------------------------------------------------|
E |---------------------------------------------------------------------|
    sukoshi houko-u wo kaete   aruko---u uuuu       kimi ga te wo hiku



PRECORO
E |-------------------------------------------5-4-/5----------|
B |--5h7-5-5------5---7-5h7---7-5-5-------5-----------(7------|
G |----------7-7----7---------------7-7-----7------------7)---|
D |-----------------------------------------------------------|
A |-----------------------------------------------------------|
E |-----------------------------------------------------------|
      nanigena-i hibi ni mo  shiawase wo nosete-e    (yeeh)



E |------------------------------------------------------------------------|
B |--7-5-5---------------------------------------------5----7-7h8--7-5-----|
G |--------7-7--7-6-7--/9-8--8-------------4-4h6-6h7-7-----------------7---|
D |----------------------------9-7h9--7--7----------------7----------------|
A |------------------------------------------------------------------------|
E |------------------------------------------------------------------------|
    wasureteta  om--o--i ga kaze  no you ugo--ki-dashita  kimi no koe de



CORO
E |--7-5-5------------------------------5/7-5-5--------------7-9-10---------|
B |---------8-7h8-7------------------------------8-7h8-7-5-----------7------|
G |-----------------9-7h9-7-7h9-7-----7--------------------------------9-7--|
D |-------------------------------------------------------------------------|
A |-------------------------------------------------------------------------|
E |-------------------------------------------------------------------------|
    suna-o ni   warai  aeru   koto   nan-----te su-barashii kimochi daro-u



E |--7-5-5--------------------------------5/7-5-5------------7-9-9h10--|
B |--------8-7h8-7---------------------------------8-7h8-7-7-----------|
G |------------------9--9r7----7-7h9-7--7------------------------------|
D |--------------------------------------------------------------------|
A |--------------------------------------------------------------------|
E |--------------------------------------------------------------------|
     aruku ha--yasa ni ki wo tsu--kete  a--wasete ku--reru yasashi--sa 



E |--12-10-9-9h10-9-9-10-9h10------5/7-5-5-----------------------|
B |----------------------------------------8-7h8-7---------------|
G |------------------------------7-----------------9--7h9/11/7---|
D |--------------------------------------------------------------|
A |--------------------------------------------------------------|
E |--------------------------------------------------------------|
     ni a--i    afureru--u      ki-mi to ona--ji a-o-zor--a






Descargas / Downloads

Aca se pueden bajar los mismos tabs + 1 tab alternativo. /Here you can download the same tabs +  1 Alternative tab.

Tab Tab Kimi to onaji aozora 4shared
Tab Tab Kimi to onaji aozora Mediafire




mp3 Kimi to onaji aozora 4shared
mp3 Kimi to onaji aozora Mediafire

Contraseña/Password: http://siguebrillandocosmos.blogspot.com





Escuchar / Listen








Enlaces relacionados
· Acordes de Kimi to onaji aozora
· Midis y Partituras de Saint Seiya de Sigue brillando Cosmos
· Inauguramos este blog de saint seiya con partituras de Cogedor Barato (o sea yo :P)





.

No hay comentarios:

Publicar un comentario en la entrada

comenten CHE!