miércoles, 25 de mayo de 2011

Tabs de Chikyuugi (ufffff costó.....) Tab

Este tab termino siendo muy dificil de hacer porque, en la cancion, Yumi Matsuzawa hace muchos efectos con su voz que es muy dificil de copiar en la guitarra (al menos, si se quiere un tab fiel). He dejado de lado varios de esos efectos para que el tab no sea exageradamente dificil (si, es mucho mas dificil XD). Incluso las notas de la melodia sin efectos me fueron dificiles de identificar por esa manipulacion sonora que logra Yumi Matsuzawa. Esta es la version que suena en el opening de las Ovas de Hades. Recordar que en el single en donde viene editada esta cancion y "kimi to onaji aozora", no hay ningun Tv Size de Chikyuugi asi que si consiguen un MP3, solo sera un extracto de las Ovas. Y en caso de que lo hayan pensado: No, este tab no es el de la version hecha por Shu Xin (pero algo me dice que tendremos noticias de dicho tab ;).

This tab became a very difficult work because, in the song, Yumi Matsuzawa do a lot of vocal effects which are very hard to transfer in the guitar (At least, if you want a faithful tab). I didn't include some of that effects so the tab won't be too difficult (yes, it's harder XD). Even the notes from the melody itself were difficult to identify because of the sound manipulation that Yumi Matsuzawa do. This version is from the Hades ovas opening. Remember that the single where this song and "kimi to onaji aozora" are edited didn't have a Chikyuugi Tv Size Track so, if you get a mp3, it'll be just an Ova extract. In case you've thought: No, this tab is not from the version made by Shu Xin (But something tells me that we'll have news of such tab ;).








Datos/Data
·Nombre original japones : 地球ぎ
·Nombre japones en Romaji: Chikyuugi
·Traduccion japonesa: Globe - earth / Tierra - Globo terraqueo

·Disco/Album:  Saint Seiya Hades Single "Chapter Sanctuary"

·Compositor: Yumi Matsuzawa 松澤 由美

·Letra: Yumi Matsuzawa松澤 由美 / Rei Takai 高井うらら

·Nº de Track: 1

·Duracion : 4:05










Referencias /References 
h = hammer (martillo) -->
Video Hammer
/ = slide (deslizamiento) -->
Video Slide
r = release hammer (soltar martillo)

~ = vibrato (vibracion. Tambien se lo representa con "v") --> Video Vibrato





Version Facil / Easy Version
(1 tono mas arriba que el tono original) / (1 step up from the original tone)

INTRO "A CAPELLA"
E |------------------------------------------------------------------|
B |----1-0-----------------------------1--0--------------------------|
G |---------0-------------------------------0------------------------|
D |--2--------0--2-------0--0----2---2--------0-2--------0-0-0-------|
A |-----------------3-3-------3---------------------3-3--------3--3--|
E |------------------------------------------------------------------|
    Namida yori mo yasashii uta wo  kanashimi yori sono nukumori wo...



PIANO
E |----------3---|----------3---|
B |------0-1-----|--------1-----|
G |----2---------|----0-2-------|
D |--------------|--------------|
A |--0-----------|--------------|
E |--------------|--1-----------|



VERSO
E |-------------------------------------------------------------|
B |-------------------------------------------------------------|
G |-----------------0-------------------------------------------|
D |----2-0-2---0------2-----2-0-2------2-0-2------0-0---0-0-----|
A |--0-------3----3-------0--------0-0--------3-3-----3-----3---|
E |-------------------------------------------------------------|
    Sekai wa soonnanimo  kantanni kawaruto wa omowana-ikedo-u



PRECORO
E |-----------------------------------------------------------------|
B |-----1-0----1-0-------------------1-0-----1-0--------------------|
G |-------------------------0---------------------------------------|
D |---2-----2-------2--0-------2---2-----2-2-----2-----0-0---0-0----|
A |----------------------3--------------------------3------3-----3--|
E |-----------------------------------------------------------------|
    shizukani yami wo tokashitte   aru-ite aru-ite mi wo tomo--u



CORO1
E |------------------------------------------------------------------|
B |----1-0-----------------------------1--0--------------------------|
G |--------0---------------------------------0-----------------------|
D |--2--------0-2-------0-0-0---2----2---------0-2------0-0--0-------|
A |-----------------3-3-------3-----------------------3---------3-3--|
E |------------------------------------------------------------------|
     yuukuri demo chikazukeru nara  yume no kakera, daisuki na hito



E |------------------------------------------------------------------------|
B |-----1-0----------------------------------1-0---------------------------|
G |---------0-------------------------------------0------------------------|
D |--2--------0-2-----0--0-0----2-2-0------2--------0-2-------0---0-0------|
A |----------------3----------3-------3------------------3-3----------3-3--|
E |------------------------------------------------------------------------|
     omoi e-gaita ai no katachi wa a a    zu-tto zu-tto sagashi tsuzukete



CORO2
E |----------------------------------------------------------------------|
B |----1-1--1-------------------------------1----------------------------|
G |------------0--------------------------------0------------------------|
D |--2-----------0-2------0--0-0-0---2----2--------0-2------0-0--0-------|
A |-------------------3-3----------3---------------------3----------3-3--|
E |----------------------------------------------------------------------|
     Anata no tameni dekiru koto nante    aishita koto nai kamo shirenai



E |-----------------------------------------------------------------|
B |----1--0---------------------------1-0---------------------------|
G |---------0-----------------------------0-------------------------|
D |--2--------0-2------0-0-0---2----2---------0-2-------0-0-0-------|
A |----------------3-3-------3---------------------3-3--------3--3--|
E |-----------------------------------------------------------------|
    demo soredemo furete-ita-iyo   kanashimi yori sono nukumori wo



EXTRA
E |--------------------0---------------------------0--------|
B |--1-0--3-1--0-1-1------3--1----1-0--3-1--0-1-1----3-1----|
G |---------------------------------------------------------|
D |---------------------------------------------------------|
A |---------------------------------------------------------|
E |---------------------------------------------------------|
    Kuru kuru mawaru chikyuugi   kuru kuru kawaru jikan



E |----------------------0-----------------------------0-----------|
B |---1-0-3--1--0-1--1-----3--1----1-0-3-1--0-0-1-1------3--1-3-1--|
G |----------------------------------------------------------------|
D |----------------------------------------------------------------|
A |----------------------------------------------------------------|
E |----------------------------------------------------------------|
     seka-i no hate ni   a-i wo   yorokobi yoseru ni  yume wo...








Version Avanzada / Advanced Version
(Tono original) / (Original tone)

INTRO "A CAPELLA"
E |----6-5------------------------------6--5----------------------------------|
B |--------6---------------------------------6--------------------------------|
G |--7-------5-5h7-------5---5---5/7--7---------5-5h7-------------------------|
D |----------------5h8-8-------8----------------------5h8-8-10-10-8h10-8-7h8--|
A |---------------------------------------------------------------------------|
E |---------------------------------------------------------------------------|
    Namida yori mo  yasashii uta  wo kanashimi yo -ri  sono nu-ku---mori  wo



PIANO
E |----------1--|----------1--|
B |-------------|-------------|
G |----0-2-3----|------0-3----|
D |-------------|--1-3--------|
A |-------------|-------------|
E |--3----------|-------------|



VERSO
E |--------------------------------------------------------------------------|
B |-----------------------6--------------------------------------------------|
G |------7-5-5h7------------5/7----7-5-5h7------7-5-5/7-----5-5---5----------|
D |--3/5---------8-8/10-8--------5----------5-5---------8-8-----8---8/10-/8--|
A |--------------------------------------------------------------------------|
E |--------------------------------------------------------------------------|
      Seka-i wa so---onnani--mo kantan--ni kawaruto  wa omowana ike -do-u



PRECORO
E |------6-5---5h6-5------------------6-5-----6-5-----------------------|
B |--------------------------6------------------------------------------|
G |--5/7-----7--------7--5-----5h7--7-----7-7-----7----5-5---5----------|
D |------------------------8-------------------------8-----8---8/10-8---|
A |---------------------------------------------------------------------|
E |---------------------------------------------------------------------|
     shizukani  yami wo tokashitte  aru-ite aru-ite mi wo tomou



CORO1
E |------6-5----------------------------------6--5--------------------------|
B |----------6-------------------------------------6------------------------|
G |--5/7-------5-5h7--0h3-3-5-5-3h5-3-5/7-5/7--------5-5h7-----5-5-5-5r3-3--|
D |--------------------------------------------------------5h8--------------|
A |-------------------------------------------------------------------------|
E |-------------------------------------------------------------------------|
       yuukuri de-mo  chikazuke--ru na-ra  yume no kake-ra daisuki na hito
 


E |-----6-5---------------------------------------6-5-----------------------------|
B |---------6-----------------------------------------6---------------------------|
G |-5/7-------5-5h7-0h3-5-5-3h5-3-5/7-5h7-5-3-5/7-------5-5h7-0h3-3-5-5-3h5-3-2h3-|
D |-------------------------------------------------------------------------------|
A |-------------------------------------------------------------------------------|
E |-------------------------------------------------------------------------------|
      omoi egai--ta ai no katachi  wa a a a    zutto zutt--o  sagashi tsuzuke-te



CORO2
E |------6-6-6-------------------------------------6----------------------------|
B |------------5h6-----------------------------------6--------------------------|
G |--5/7-----------5-5h7-0h3-3-5-5-5-3h5-3-5/7-5/7-----5-5h7-1/3-5-5-3h5-3-2h3--|
D |-----------------------------------------------------------------------------|
A |-----------------------------------------------------------------------------|
E |-----------------------------------------------------------------------------|
      Anata no  tame--ni  dekiru koto na-n--te  aishita koto nai kamo shirenai



E |------6-5----------------------------------6-5------------------------------|
B |----------6------------------------------------6----------------------------|
G |--5/7-------5-5h7-0h3-3-5-5-3h5-3-5/7--5/7-------5-5h7-0h3-3-5-5-3h5-3-2h3--|
D |----------------------------------------------------------------------------|
A |----------------------------------------------------------------------------|
E |----------------------------------------------------------------------------|
      demo sorede-mo  furete-i--ta-i--yo   kanashimi yori  sono nuku-mori  wo



EXTRA
E |--5h6-5--6h8-6--5-6-5h6--8/10--8--6--5h6-5--6h8-6--5-6-5h6-8/10-8--/6---|
B |------------------------------------------------------------------------|
G |------------------------------------------------------------------------|
D |------------------------------------------------------------------------|
A |------------------------------------------------------------------------|
E |------------------------------------------------------------------------|
      Kuru   kuru mawar--u   chikyuuji   kuru   kuru kawa--ru    jika--n



E |--5h6-5--6h8-6--5-6-5h6--8/10-8-6--5h6-5--6h8-6--5-5-6-5h6--8/10-8-6--5h6/8/6-|
B |------------------------------------------------------------------------------|
G |------------------------------------------------------------------------------|
D |------------------------------------------------------------------------------|
A |------------------------------------------------------------------------------|
E |------------------------------------------------------------------------------|
      seka----i no hate ni     a-i wo  yoro---kobi yoseru  ni    yume wo















Descargas / Downloads

Aca se pueden bajar los mismos tabs + tabs y explicaciones adicionales. /Here you can download the same tabs + Alternative tabs and explanations.

Tab Tabs Chikyuugi 4shared
Tab Tabs Chikyuugi Mediafire



mp3 Chikyuugi (Full size) 4shared
mp3 Chikyuugi (full size) Mediafire

mp3 Chikyuugi Tv Size (extracto) 4shared
mp3 Chikyuugi Tv Size (extracto) Mediafire






Escuchar / Listen

Chikyuugi (TV Version)




Chikyuugi (full size)







Enlaces relacionados
· Acordes de Chikyuugi (por el mundo estara....)
· Informe: Canciones Vocales en los Capitulos de Saint Seiya
· Este frances sabe tocar el piano...
· Magia pianistica de la mano de Absolutepitcher
· Midis y Partituras de Saint Seiya de Sigue brillando Cosmos


.

4 comentarios:

Tavo san dijo...

oye exelente tu blog por cierto no si si la quieras pero yo tengo en mi anterior blog una vercion de esta cancion aca te dejo la entrada de mi blog con la tablatura y mi permiso para publicarla en tu exelente blog si te parece buena ;D http://animetaku-blog.blogspot.com/2012/08/tab-de-saint-seiya-chikyuugi-ova_28.html

Cogedor_barato dijo...

uh, la version de Shu-Xin. Tengo que hacerle un post al chino ese :D gracias por el permiso y porsupuesto van a ir tus creditos en el post :)

jefersson dijo...

las mejores qe buen Blog

Cogedor_barato dijo...

gracias :D

Publicar un comentario en la entrada

comenten CHE!