viernes, 6 de mayo de 2011

La marcha de la paliza by atlas partituras/sheetmusicTabsolfeo/solfa

Asi es, esta es la famosa musica de fondo que suena en la pelicula de Abel (Shinku no Shounen Densetsu) cuando Atlas se fornica a los 5 caballeros de bronce frente al templo de la corona. La "gran" fama de este BGM (Musica de fondo) se debe, en primer lugar, a que suena en una escena destacada en la "mejor" (la menos peor en realidad :P ) peli de Saint Seiya. En 2do, esta el hecho de que tal  BGM no se encuentra editado en ningun CD hasta el momento. Esto genero que en muchos foros se preguntara una y otra vez "¿donde puedo encontrar esta cancion?" ya que al buscar en el soundtrack de la pelicula de Abel (OST 5 ), este BGM no aparecia. Gracias a eso empezo a cobrar cierta fama entre los fans de los caballeros del zodiaco como si fuera una especie de track perdido (con el tiempo esto se volvio cierto ya que los audios originales se "perdieron" asi que no creo que vaya a ser incluido en algun disco en el futuro...). Este track solo fue usado 1 vez mas: En la Escena de la Ova 12 de Hades santuario cuando Saga, Shura y Camus se presentan ante Pandora con el supuesto cadaver de Athena.


That's right, this is the famous BGM (Background music)  in the Abel's movie (Shinku no Shounen Densetsu) when Atlas fornicate the 5 bronze saints in front of the Corona temple. The fame of this BGM is, in first place, because it's played in an importan scene in the "best" (the less worst in fact :P ) Saint Seiya movie. In 2nd, there's the fact that such BGM  isn't edited in any CD so far. This caused that many people ask in forums over and over "¿where can i get this song?" because they searched it in the Abel movie soundtrack (OST 5) and they didn't find it. Thanks to this, the BGM began to gain fame as if it would be some kind of missing track ( In fact, it's true because the master tapes are "missing" so it won't be in the near future i think...). This track was used just one more time: In the scene From the Ova 12 Hades Sanctuary, where Saga, Shura and Camus  show up in front of Pandora with the Supposed Athena's corpse.








Como pueden ver, es una partitura muy sencilla. Lo unico que me causo problemas fue el archivo midi porque le tuve que incorporar instrumentos de percusion y eso no lo sabia hacer jeje Me tomo 1 rato hasta que me salio pero creo que quedo bien :D
En la zona de descargas de la Micro-Web ya estan subidos todos los OST's y casi todos los discos vocales. La meta es subir toda la discografia  antes de navidad :P


As you can see, it's an easy sheet. The only thing that brought me trouble was the midi file because i must add the percussion instruments and i didn't know how to do it hehe  It take me a while until i can made it but i think the result is ok :D
In the download zone of the Micro-Web is uploaded all the OST's and almost all the vocal albums. The goal is upload all the discography before christmas :P











Datos/Data
·Nombre Castellano no oficial : Marcha al templo de la Corona.
·Unofficial English name: Corona's Temple march

·Disco/Album:  --

·Compositor: Seiji Yokoyama  横山菁児

·Duracion : 3:49 ( El mp3 extraido / The extracted mp3 )









TAB

E |----0--------0-------------0--------------------------------0----|
B |------4----4----------0-1----4-1------------------0-1---1-4------|
G |--2------------2----2------------2--------0-2---2----------------|
D |----------------------------------------3------------------------|
A |-----------------------------------------------------------------|
E |-----------------------------------------------------------------|




E |--3-2-2-0-0-----3-5-3-2-0-----3-2-2-0-----------|
B |--------------------------------------4-1-------|
G |--------------2-------------2-------------2-----|
D |------------------------------------------------|
A |------------------------------------------------|
E |------------------------------------------------|




E |------------------------0-----------------------------------0-------------|
B |--------------------------4-1-0-------------------------------4-1-0-------|
G |----0-2-----0-2-----0-2---------2--------0-2----0-2-----0-2---------2-----|
D |--3-------3-------3--------------------3------3-------3-------------------|
A |--------------------------------------------------------------------------|
E |--------------------------------------------------------------------------|




E |----0--------0-------------0--------------------------------0----|
B |------4----4----------0-1----4-1------------------0-1---1-4------|
G |--2------------2----2------------2--------0-2---2----------------|
D |----------------------------------------3------------------------|
A |-----------------------------------------------------------------|
E |-----------------------------------------------------------------|




E |--3-2-2-0-0-----3-5-3-2-0-----3-2-2-0-----------|
B |--------------------------------------4-1-------|
G |--------------2-------------2-------------2-----|
D |------------------------------------------------|
A |------------------------------------------------|
E |------------------------------------------------|




E |------------------------0-----------------------------------0-------------|
B |--------------------------4-1-0-------------------------------4-1-0-------|
G |----0-2-----0-2-----0-2---------2--------0-2----0-2-----0-2---------2-----|
D |--3-------3-------3--------------------3------3-------3-------------------|
A |--------------------------------------------------------------------------|
E |--------------------------------------------------------------------------|




E |----0--------0--------0--------0---------------------------------|
B |------4----4------------4----4-----------------------------------|
G |--2------------2----2------------2------0-2-----0-2-----0-2------|
D |--------------------------------------3-------3-------3----------|
A |-----------------------------------------------------------------|
E |-----------------------------------------------------------------|












Solfeo (Flauta) / Solfa (Flute)
a4 e5 d#5   d#5 e5 a4   a4 b4 c5 e5 d#5 c5 a4
f4 g4 a4   a4 b4 c5   c5 d#5 e5
g5 f#5 f#5 e5 e5   a4 g5 a5 g5 f#5 e5    a4 g5 f#5 f#5 e5 d#5 c5 a4
f4 g4 a4   f4 g4 a4   f4 g4 a4 e5 d#5 c5 b4 a4 
f4 g4 a4   f4 g4 a4   f4 g4 a4 e5 d#5 c5 b4 a4

a4 e5 d#5   d#5 e5 a4   a4 b4 c5 e5 d#5 c5 a4
f4 g4 a4   a4 b4 c5   c5 d#5 e5
g5 f#5 f#5 e5 e5   a4 g5 a5 g5 f#5 e5    a4 g5 f#5 f#5 e5 d#5 c5 a4
f4 g4 a4   f4 g4 a4   f4 g4 a4 e5 d#5 c5 b4 a4 
f4 g4 a4   f4 g4 a4   f4 g4 a4 e5 d#5 c5 b4 a4

a4 e5 d#5   d#5 e5 a4    a4 e5 d#5   d#5 e5 a4
f4 g4 a4   f4 g4 a4   f4 g4 a4












Descargas/Downloads


partituras/sheetmusic  Partitura en formato jpg/ Sheet music in jpg format.


4shared
  



Mediafire
marcha1 marcha2







partituras/sheetmusic Partitura en formato pdf / Sheet music in pdf format.
pdf Marcha al templo de la corona  4shared
pdf Marcha al templo de la corona Mediafire





Punteo + Solfeo (notas para flauta)/ Tab + Solfa (flute notes)
Tab solfeo/solfa  Marcha tab solfeo  4shared
Tab solfeo/solfa  Marcha tab solfeo Mediafire





Midi
midi  Marcha al templo de la corona 4shared
midi  Marcha al templo de la corona Mediafire






Mp3 (extracto sin voces / extracted without voices)
mp3 Marcha al templo de la corona 4shared
mp3 Marcha al templo de la corona Mediafire


Contraseña/Password: http://siguebrillandocosmos.blogspot.com






Tutorial en piano de Marcha al templo de la corona (Synthesia)









Enlaces relacionados
· Tabs de Abel's theme (+ guitar pro :OOO )




·

No hay comentarios:

Publicar un comentario en la entrada

comenten CHE!