viernes, 20 de mayo de 2011

KIZUNA, otra partitura mas de The Lost Canvas partituras/sheetmusic Tab solfeo/solfa

Finalmente, y a pedido del publico, llega otra partitura de Saint Seiya: el lienzo perdido (o "Los Guerreros del Zodiaco", nombre dado en latinoamerica). En realidad la partitura que mas piden de El lienzo perdido/The lost canvas es "hana no kusari" (cadena de flores) pero bueno, confio en que en algun momento se me va a pasar la pereza y la voy a terminar :$ Respecto a este BGM, Seguramente el nombre (KIZUNA) no les dice nada. A mi tampoco me diria nada si no fuera porque me lo se de memoria :P La escena mas memorable en donde se usa este track es en la escena de la muerte de Asmita, el caballero de Virgo. Al principio me parecio un error usar este track ya que me imaginaba una escena triste, pero luego de ver el capitulo 1 par de veces mas se me hizo un BGM acertado porque resalta la valentia y el sentido del deber de dicho caballero :)
No es una partitura muy complicada ya que el acompañamiento es basicamente tocar los acordes. Tener en cuenta que en el compas 16 el ultimo acorde adiciona una nota mas asi que atentos ;)


Finally, , Another Sheet music from Saint seiya: The Lost Canvas is out (or "The Warriors of Zodiac" as it is called in latinamerica). In fact, the most asked sheet music from The Lost canvas is "Hana no Kusari"(Chain of flowers). Well, i hope that my laziness will vanish soon so i can finish it once and for all :$ About this BGM, probably its name (KIZUNA) doesn't mean anything to you. IT wouldn't mean anything to me neither if it wasn't because i know it by heart :P The most memorable scene where this track is played, is in the Asmita's death scene. At the beggining i thought it was a mistake to use this track because i imagined a sad scene, but after seeing the chapter a couple of times it becomes a right track as it highlight the bravery and the sense of duty from this saint :)
Isn't a complex sheet music because the right hand notes are just chords basically. Remember that in the stave 16 the last chord adds 1 more note so keep it in mind ;)










Datos/Data
·Nombre original japones :
·Nombre japones en Romaji: Kizuna

·Traduccion japonesa: Bonds / Lazos

·Disco/Album:  Saint Seiya: The Lost Canvas - Hades Mythology ~ Original Soundtrack

·Compositor: Kaoru Wada   和田 薫

·Nº de Track: 19

·Duracion : 1' 01''







TAB

E |---------------------------------|
B |-------------------1-0-----------|
G |------2---2------2-------2-0-2---|
D |--0-0---0------0-----------------|
A |---------------------------------|
E |---------------------------------|



E |-------------------------------------------------|
B |-----------------------1-0-----------------------|
G |-------------0----0-2-------2-0----0-------------|
D |--0-2-3--2-3----3---------------3----3-2-0-------|
A |-------------------------------------------3-0---|
E |-------------------------------------------------|



E |--------------------------------------------------------|
B |-----------------------1-0------------------------------|
G |-------------0----0-2-------2-0----0-----------(0)------|
D |--0-2-3--2-3----3---------------3----3-2-0---0----(4)---|
A |-------------------------------------------3------------|
E |--------------------------------------------------------|



E |------------------------------------------------------------------|
B |------------------------------------------------------------------|
G |----------------------------------0-------------------0-----------|
D |----0--2-3------------------0-2-3---3-2-3-0-----0-2-3---3-2-3-0---|
A |-----------3---------(3)------------------------------------------|
E |--1----------(1)-(1)------1-------------------1-------------------|



E |-------0-1-----------------------------0--------------|
B |-----3-----1-----------------------1-3------1--1--1---|
G |----------------------(3)---3-2-3---------------------|
D |--3-----------(0)-(3)---------------------------------|
A |------------------------------------------------------|
E |------------------------------------------------------|


Las notas entre parentesis son opcionales / The notes between ( ) are optional.




Solfeo (Flauta) / Solfa (Flute)
d4 d4 a4 d4 a4, d4 a4 c5 b4,  a4 g4 a4

d4 e4 f4, e4 f4 g4, f4 g4 a4 c5 b4, a4 g4 f4, g4 f4 e4 d4 c4 a3
d4 e4 f4, e4 f4 g4, f4 g4 a4 c5 b4, a4 g4 f4, g4 f4 e4 d4 c4 d4 (g4 f#4)

f3 d4 e4 f4 c4 (f3 f3 c4), f3 d4 e4 f4 g4 f4 e4 f4 d4
f4 d5  e5 f5 c5 (a3 c4 f4), a#4 a4 a#4 c5 d5 e5
c5 c5 c5












Tutorial en piano de Kizuna (Synthesia)











Descargas/Downloads


partituras/sheetmusic  Partitura en formato jpg/ Sheet music in jpg format.

4shared




Mediafire
kizuna1 kizuna2







partituras/sheetmusic Partitura en formato pdf / Sheet music in pdf format.

pdf Kizuna 4shared
pdf Kizuna Mediafire





Punteo + Solfeo (notas para flauta)/ Tab + Solfa (flute notes)
Tab solfeo/solfa Kizuna tab-solfeo 4shared
Tab solfeo/solfa Kizuna tab-solfeo Mediafire





Midi
midi Kizuna 4shared
midi Kizuna Mediafire






mp3 Kizuna 4shared
mp3 Kizuna Mediafire

Contraseña/Password: http://siguebrillandocosmos.blogspot.com





Enlaces relacionados
· Acordes de "Cadena de Flores" ("Single ~The Lost Canvas")
· Acordes de "El reino de Athena" ("Single ~The Lost Canvas")
· Tabs, solfeo y acordes de "Sasha no Inori" (The Lost Canvas)



.

1 comentario:

Anónimo dijo...

Mira mi trabajo

Abraços http://www.youtube.com/watch?v=oFMh78DLyiQ

Publicar un comentario en la entrada

comenten CHE!