lunes, 2 de mayo de 2011

Al fin los tabs de Blue Forever!! (???) Tab

Estaban desesperados porque  publique estos tabs no? :P A pesar de que es una cancion "no dificil", se me complico un poco porque es medio engañosa en algunas notas. El punto a favor es que la cancion esta en un tono "facil" (por eso de los acordes y transportar las notas). En fin, excusas aparte, les comento que los tabs y acordes de los opening y endings de la serie van a seguir desfilando por el blog hasta que esten todos. Faltan pocos :D
AHHHH!!! en unos dias el blog va a sufrir un "cambio" y habran unas cuantas novedades. Esten atentos ;)

You were desperated waiting for this tabs, isn't it? :P Even when this song is a "non difficult" one, it got complicated a little because is tricky in some notes. A point in its favour is that the song is in an "easy" tone (because of the chords and to tranpose the notes). Anyway, excuses aside, I comment you that the tabs and chords of the openings and endings from the series will  continue marching in the blog until we got it all. There are justo a few left :D
OHHH!! in a couple of day the blog will suffer a "change" and there will be some news . Keep in touch ;)









Datos/Data
·Nombre Ingles internacional : Blue Forever

·Nombre original japones : 永遠ブルー
·Nombre japones en Romaji: Eien Buruu
·Traduccion japonesa: Endless Blue / Azul Eterno

·Disco/Album:  HITS I 

·Compositor:  Hiroaki Matsuzawa 松澤浩明 / Nobuo Yamada (NoB) 山田 信夫

·Nº de Track: 10

·Duracion : 4:05










Version facil / Easy version
(Disminuido en 2 1/2 Tonos // 2 1/2 steps down)


VERSO
E |----------------------------------------|
B |--------0------3--0--------0------3-0---|
G |--0-2-0----0-2-------0-2-0----0-2-------|
D |----------------------------------------|
A |----------------------------------------|
E |----------------------------------------|
    Kirameku  seiza ga  omae  o  yonderu 



E |-------------------------------------------|
B |-------0--------3-0----------0-------------|
G |--0-2-----0-2-2-----2-0----0----2--0-2-0---|
D |-------------------------2-----------------|
A |-------------------------------------------|
E |-------------------------------------------|
s    ore wa  erabareta--a  senshi no  akashi



PRECORO
E |---------------------------------------------------------------|
B |------0-------0------0-----------0-0------0------0-1--0-1--3---|
G |--0-2-----0-2----2-0-------0-2-0------0-2----2-0---------------|
D |------------------------2--------------------------------------|
A |---------------------------------------------------------------|
E |---------------------------------------------------------------|
    Girisha shinwa no you ni  mabushi-i Kurosu matotte,  oh yeah!



CORO
E |-----------------------------------------------------------0-----|
B |--3--3-1-0-3---3-1-0-3-----0-1-0-----0--0---------0---0--3---3---|
G |-----------------------0---------0-2------2-0-2-----2------------|
D |-----------------------------------------------------------------|
A |-----------------------------------------------------------------|
E |-----------------------------------------------------------------|
    Aah ashita no sora wa buruu donna yume mo shinjireba kanau yo



E |-------------------0-2--3-----3-1----1-------------|
B |--3---3-1-0--3---3---------1------4---------1-0----|
G |----------------------------------------2-2--------|
D |---------------------------------------------------|
A |---------------------------------------------------|
E |---------------------------------------------------|
    Aah kokoro ni shimiru buruu  eien  no kagay
aki







Version avanzada / Advanced version
(Tono original / Original tone)

VERSO
E |-----------------------------------------------|
B |--------5------8-8h5------------5------8-8/5---|
G |--5-7-5----5-7-----------5-7-5-----5-7---------|
D |-----------------------------------------------|
A |-----------------------------------------------|
E |-----------------------------------------------|
    Kirameku  seiza  ga     oma e  o  yonderu 



E |-----------------------------------------------|
B |-----------------8-8/5----------5--------------|
G |--5-7-7/9--5-7-7-------7-5--2/5----7--5-7--5---|
D |-----------------------------------------------|
A |-----------------------------------------------|
E |-----------------------------------------------|
    sore   wa erabare ta  -a  senshi no  akashi



PRECORO
E |------------------------------------------------------------------------|
B |------------------------5-------------------------------5-5h6--5-6-6/8--|
G |--5-7-7/9--5-7-7/9-7--5-------5-7-5-7/9-9--5-7-7/9--7-5-----------------|
D |--------------------------7---------------------------------------------|
A |------------------------------------------------------------------------|
E |------------------------------------------------------------------------|
    Giri-sha shin-wa no you ni  mabushi--i   Kuros-u   matott-e,  oh  yeah!
 


CORO
E |------------------------------------------------------------------------|
B |--8--8-6-5-5h8--8-6--5--8----5h6-5----------------------5---5--8--10/8--|
G |--------------------------5---------5-7-7/9-9-/7-5-5h7----7-------------|
D |------------------------------------------------------------------------|
A |------------------------------------------------------------------------|
E |------------------------------------------------------------------------|
    Aah ashita no sora wa buruu donna yume  mo shinjireba  kanau yo  Oh!



E |-------------------5-7--8-----8---------------------------|
B |--8---8-6-5--8--8----------6----11--9h11------------------|
G |--------------------------------------------7-7-10-10/9---|
D |----------------------------------------------------------|
A |----------------------------------------------------------|
E |----------------------------------------------------------|
    Aah kokoro ni shimiru buruu   eien     no  kagayak-i












Descargas/Downloads

Tabs + adicionales / Tabs + aditionals

Tab Blue Forever Tab 4shared
Tab Blue Forever Tab Mediafire




mp3 Blue forever 4shared
mp3 Blue Forever Mediafire

Contraseña/Password: http://siguebrillandocosmos.blogspot.com






 Videito Youtube







Enlaces relacionados
· Disco "Saint Seiya - Hits" (El primero de la trilogía)
· Acordes de "Blue Forever"!!!



·

1 comentario:

ARZCOMP STUDIO dijo...

Arriba SiqueBrillandoCosmos CARAJOOO!!!

Publicar un comentario en la entrada

comenten CHE!