sábado, 17 de octubre de 2015

Soul of Gold... na na na na na nananana! Tabsolfeo/solfa

Solo a mi se me ocurre sacar una partitura de un anime semanas despues de haber terminado, en vez sacarla cuando el anime se estaba emitiendo. Un verdadero 0 en marketing y publicidad ^_^¿ Reconoceran esta pieza musical como el tema que suena durante el resumen del capitulo anterior. Dejando de lado el opening, que no es mas que un remake de Soldier Dream, este BGM se ha convertido en la pieza mas representativa de este anime que, "casualmente", lleva el nombre de SOUL OF GOLD, algo logico si tenemos en cuenta que lleva el leitmotiv del OST ;)


Only i can think in releasing a sheet music of an anime weeks after its finalization instead of releasing it when the anime is on air. I deserve a big 0 in publicity and marketing ^_^¿ you'll recognize this musical piece as the theme played in the synopsis of the previous episode . Putting the opening aside (which is just a remake of Soldier Dream), this BGM has become the most representative theme for this anime and "by chance" it's called SOUL OF GOLD, something logical if we think that it carries the OST's leitmotiv.







Este es un tab bastante simple ya que solo lleva la melodia. Me habria gustado dejar un tab mas complejo pero estoy en una situacion donde no tengo ni piano ni guitarra entonces no estoy en condiciones de hacer arreglos complejos con cambio de tono. De hecho, como habran notado, tampoco inclui los acordes por el simple hecho de que no puedo sacarlos!! En el futuro, cuando ya consiga una guitarra, voy a actualizar este post con un tab mas elaborado y sus respectivos archivos (Quien hubiera dicho que era tan dificil conseguir una guitarra en el fin del mundo? :P ).

This is a very simple tab because it only has the melody. I would have like to give you a more complex tab but i'm in a situation where i don't have either a piano nor a guitar so i'm not in condition to do complex arrangements with pitch shift and else. In fact, as you have seen, i didn't include the chords either for the simple reason that i can't get them! In the future, when i can get a guitar, i'll update this post with a more elaborated tab + the respective files (who would think that it was so hard to find a guitar in the end of the world? :P)











·Nombre original japones : ソウルオブゴールド 
·Nombre japones en Romaji:  Souru obu goorudo
·Traduccion japonesa: Soul of Gold  / Alma de oro

·Disco/Album: Sound of Gold I

·Compositor: Toshihiko Sahashi 佐橋 俊彦

·Nº de Track: 02

·Duracion : 01:41




Solfeo / Solfa

c4 d4 d#4 f4 d#4 d4 c4 a#3 c4
c4 g4 f4 g4 g#4 g4, g3 d#4 c4 d4 d#4 d4,
g3 d#4 c4 d4 d#4 f4, d4 d#4 f4 g4, d#4 f4 g4 g#4, f4 g4 g#4 a#4 g#4 g4 f4 g#4 g4,
c4 c4 c4 a#3 c4 g4 f4 g4, c4 c4 c4 a#3 c4 g4 f4 g4,
c4 a#4 c5 c5 a#4 c5 c5, c4 a#4 c5 c5 a#4 c5 c5, a#4 c5 c5,
c4 c4 c4 c4, c4 c4 c4 c4,

c4 d4 d#4 f4 d#4 d4 c4 a#3 c4
c4 g4 f4 g4 g#4 g4, g3 d#4 c4 d4 d#4 d4,
g3 d#4 c4 d4 d#4 f4, d4 d#4 f4 g4, d#4 f4 g4 g#4, f4 g4 g#4 a#4 g#4 g4 f4 g#4 g4,
c4 c4 c4 a#3 c4 g4 f4 g4, c4 c4 c4 a#3 c4 g4 f4 g4,
c4 a#4 c5 c5 a#4 c5 c5, c4 a#4 c5 c5 a#4 c5 c5, a#4 c5 c5,
a#2 c3), a#3 c4








Tab version facil / Easy version Tab

E |-----------------------------------------------------------------------------|
B |-----------------------------------------------------------------------------|
G |--------------------------0---0-1-0---------------------------------------0--|
D |----0-1-3-1--0--------------3-----------1---0-1-0------1----0-1-3---0-1-3----|
A |--3------------3-1-3----3-----------------3---------------3------------------|
E |--------------------------------------3--------------3-----------------------|



E |---------------------------------------------------------------------------|
B |---------------------------------------------------------------------------|
G |------0-1-----0-1-3--1---0----1--0--------------0---0--------------0---0---|
D |--1-3-------3---------------3---------------------3------------------3-----|
A |--------------------------------------3-3-3-1-3----------3-3-3-1-3---------|
E |---------------------------------------------------------------------------|



E |---------------------------------------------------------------|
B |------1-1---1-1--------1-1---1-1-----1-1-----------------------|
G |---3------3---------3------3-------3---------------------------|
D |---------------------------------------------------------------|
A |-3----------------3------------------------3-3-3-3---3-3-3-3---|
E |---------------------------------------------------------------|



E |-----------------------------------------------------------------------------|
B |-----------------------------------------------------------------------------|
G |--------------------------0---0-1-0---------------------------------------0--|
D |----0-1-3-1--0--------------3-----------1---0-1-0------1----0-1-3---0-1-3----|
A |--3------------3-1-3----3-----------------3---------------3------------------|
E |--------------------------------------3--------------3-----------------------|



E |---------------------------------------------------------------------------|
B |---------------------------------------------------------------------------|
G |------0-1-----0-1-3--1---0----1--0--------------0---0--------------0---0---|
D |--1-3-------3---------------3---------------------3------------------3-----|
A |--------------------------------------3-3-3-1-3----------3-3-3-1-3---------|
E |---------------------------------------------------------------------------|



E |--------------------------------------------------------|
B |------1-1---1-1--------1-1---1-1-----1-1----------------|
G |---3------3---------3------3-------3--------------------|
D |--------------------------------------------------------|
A |-3----------------3------------------------1-3----1-3---|
E |--------------------------------------------------------|





Tutorial










Descargas / Downloads

solfeo + tab / solfa + tab

Tabsolfeo/solfa Soul of Gold tab 4sharedTabsolfeo/solfa Soul of Gold tab Mediafire




partituras/sheetmusic Partitura en formato JPG / Sheet music in JPG format

4shared


Mediafire
Soulgold1Soulgold2




partituras/sheetmusic Partitura en formato PDF / Sheet music in PDF format

pdf Soul of Gold tab 4shared
pdf Soul of Gold tab Mediafire




Archivo Guitar pro 5 / Guitar pro 5 file
Guitar pro Soul of Gold guitar pro 4shared
Guitar pro Soul of Gold guitar pro Mediafire




Midi
midi Soul of Gold guitarra 4shared
midi Soul of Gold guitarra Mediafire







mp3 Soul of Gold Mediafire

Contraseña/Password: http://siguebrillandocosmos.blogspot.com









Enlaces relacionados
· Acordes de Soldier Dream (vive tus sueños y llegaras al...Saint Seiya)
· Tabs tabs de soldier Dream



·

3 comentarios:

Alexandra RV dijo...

Me encanto, muy buen aporte! nwn

Cogedor_barato dijo...

gracias :D

fernanda diaz dijo...

Me encanta este tema, ojala lo pudieran poner pronto en partitura para piano.

Publicar un comentario en la entrada

comenten CHE!