viernes, 24 de junio de 2011

Tabs de "Death Messenger" (el canto de la cabeza cortada) Tab

No se como pasó. Esta pieza no me habia gustado la primera vez que la escuche, ni la segunda, ni la tercera. Y cuando la escuche en su respectiva escena en el anime tampoco me gusto. Nisiquiera en este momento puedo decir que "me gusta" pero bueno, pasa siempre: Escuchas una melodia (que hasta podes odiar) y se te queda en la cabeza como si fuera un cuchillo clavado en el craneo. No tuve otra opcion mas que hacer el tab. Ciertamente hasta senti que un poder superior me obligaba XD Ademas van 2 posts seguidos de El lienzo perdido/Lost canvas. Debe ser un embrujo...
En fin, se trata de esa pieza que suena cuando Cube realiza su tecnica sobre Aldebaran de Tauro. Aparte de ser un tab cortito, no es muy complicado. Las notas estan muy ligadas. Tengan eso en cuenta sino cuando la toquen les va a quedar no muy bien. Los que sean avanzados con la guitarra, pueden reemplazar los Slides con Hammers ;)

I don't how it happened. This piece didn't like me the first time i heard, nor the second one and nor the third one. And when i heard it in the anime scene, it didn't like me either. Not even now i can say that "i like it" but well, it always happens: You hear a melody (which you can even hate) and it stays in your head like a knife nailed in the skull. I had no choice but to make the tab. Certainly i even felt that a higher power was forcing me XD  Also, there are 2 posts in a row from The Lost Canvas. It must be a spell...
Anyway, this piece is played in the scene where Cube executes his technique on Taurus Aldebaran. It's a short and a non complicated tab. The notes are very tied. Keep that in mind when you play it, if not it'll sound "not very good". The advanced guitar players can replace the slides with Hammers ;)









Datos/Data
·Nombre original japones : デスメッセンジャー
·Nombre japones en Romaji: Desu Messenjaa
·Traduccion japonesa: Death Messenger / Mensajero de Muerte

·Disco/Album:  Saint Seiya: The Lost Canvas - Hades Mythology ~ Original Soundtrack

·Compositor: Kaoru Wada   和田 薫

·Nº de Track: 29

·Duracion : 0' 42''










Tab

E |-----------------------7-/4-3~-----------------------7-/3-5/8---|
B |--6/8-6-8--8/9/8--6-8------------6/8-6-8--8/9/8--6-8------------|
G |----------------------------------------------------------------|
D |----------------------------------------------------------------|
A |----------------------------------------------------------------|
E |----------------------------------------------------------------|


E |-----------------------7-/4-3~-----------------10/16----------------4---4------|
B |--6/8-6-8--8/9/8--6-8----------10/12-(13-14-13-------13-14-13~-)X2----6---6----|
G |----------------------------------------------------------------------------4--|
D |-------------------------------------------------------------------------------|
A |-------------------------------------------------------------------------------|
E |-------------------------------------------------------------------------------|










Descargas / Downloads


mp3 Death messenger 4shared
mp3 Death messenger Mediafire


Contraseña/Password: http://siguebrillandocosmos.blogspot.com














Enlaces relacionados
· Tabs, solfeo y acordes de "Sasha no Inori" (The Lost Canvas)



.

3 comentarios:

Anónimo dijo...

muy bueno tu laburo che, las canciones de los caballeros son las mejores que hay, no sabes dnd encontrar la tab de pegasus ryu sei ken?

Cogedor_barato dijo...

Bueno, pegasus ryuseiken es la version sinfonica de pegasus fantasy asi que podes revisar el post que hize de tabs de pegasus fantasy (la version facil esta en la misma tonalidad que pegasus ryuseiken)
http://siguebrillandocosmos.blogspot.com/2011/02/tab-pegasus-fantasy-seiya-opening.html

sino podes ver el videotutorial de este fan argentino del que proximamente hare un post
http://www.youtube.com/watch?v=PMna5FYtWIg

un saludo

Anónimo dijo...

muchas gracias por tu respuesta amigo ahora mismo voy a verla, un gran trabajo el tuyi segui asi

Publicar un comentario en la entrada

comenten CHE!