sábado, 18 de agosto de 2012

Tabs del abuelo Kido Tab

Tan pronto "volvio" el blog  tambien lo hicieron las demoras ^_^¿ Ya en unas semanas espero normalizar los posteos. Definitivamente este es un post para los fans del saint seiya clasico! ya que la pieza de hoy es una de las que solo se escucharon durante la primera mitad de la saga del santuario: ERA OF LEGEND.

The blog is back and the delays too ^_^¿ i hope to normalize the entries in a few weeks. Definitely this is a post for the classic saint seiya fans! because today's piece is one played only in the first half of the sanctuary chapter: ERA OF LEGEND.










Mas precisamente el primer movimiento de dicho track, el cual es el leitmotiv asociado a Mitsumasa Kido, el "nono" de Saori y creador de la fundacion Galard (graude, graad o como sea...). Esta pieza no fue muy usada dentro de la serie y eso se debe a que el personaje de Mistumasa kido aparecia muy poco. Practicamente podemos decir que hacia cameos o que era un personaje terciario :P 
El tab en si no es complicado ya que la primera parte es solo la melodia + el agregado de los acordes. El sensei Yokoyama es tan considerado que hizo esta pieza en el tono standar, facilitandome enormemente el trabajo ;D la segunda parte es mas punteo aunque siempre tratando de mantenerlo facil. Los punteos de acompañamiento son en base a los mismos que suenan en el track, o mejor dicho, lo que yo escucho en el track. Trato de no "inventar" notas y ser lo mas fiel que se pueda al track. Espero tener buen oido...


More precisely the first movement of such track which is the leitmotiv asociated to Mistumasa Kido, the Saori's "grandpa" and creator of the graude (graad, whatever...) foundation. This piece wasn't often used in the series and that's because Mitsumasa Kido had just a few appearances. We can say that he just made cameos or that he was a tertiary character :P
The tab isn't very complicated considering that the first part is just the melody + the chords. The Yokoyama Sensei is so courteous that he made this piece in standart tone, making my job much more easy. The accompaniment notes are from the same notes played in the track, or should i say what it hear in the track. I try to be as faithful as i can to the track and not "inventing" notes. I hope to have a good ear...











Datos/Data
·Nombre original japones : 伝説の時代へ

·Nombre japones en Romaji: Densetsu no jidai he
·Traduccion japonesa: Era of legend / Era de leyenda

·Disco/Album:  Original Soundtrack I (OST I)

·Compositor: Seiji Yokoyama  横山菁児

·Nº de Track: 10

·Duracion : 4:56 
















Version facil / Easy version
(Tono original / Original tone)

E |----0----------------0-3-2----2-0----0-3-5-------0-------------------|
B |------3--0------------------3------------------1------3-1-0-----0----|
G |--2---------0--2---------------------------2-2--------------------2--|
D |--------------------------------------------------------------2------|
A |---------------------------------------------------------------------|
E |---------------------------------------------------------------------|



E |----5-3-0-------5-8-7---3-3-7-5---5-8-10---------5--3-1-0----0----|
B |--3-------1-3----------------------------------6---------------3--|
G |-----------------------------------------7-7---------------2------|
D |------------------------------------------------------------------|
A |------------------------------------------------------------------|
E |------------------------------------------------------------------|






Version avanzada / Advanced version
(Tono original / Original tone)

E |---------0-----------------------0---3---2------2---0---0--3---5--------------0--|
B |-1----------3---0------------1-----------3---3------1----------6----------1---1--|
G |-2---2------0-------0---2----0-----------2----------2----------5--------------0--|
D |-2----------0-----------2----2-----------0----------2--------------7---7------2--|
A |-0----------2-----------0----0----------------------0-------------------------3--|
E |------------------------0--------------------------------------------------------|


E |--------------------------|-------5--3--0--------------------5--8---7------------|
B |-3--1---0------0-------1--|----3-----------1--3--------------------------------0-|
G |--------0----------2---2--|-----------------------------------------0--------0---|
D |--------2---2------2---2--|-0--------3--------0--------2-0-0---------------0-----|
A |--------2----------0---0--|------------------------0-3-----3-------------2-------|
E |--------0----------0---0--|----------------------1---------------------3---------|


E |-3--3--7---5------------5--8--10-------------5----3--1---0-----0------3--1--0----|
B |--------------6--5--5---------------------6--6-----------1---------3--3--3--3--3-|
G |------------------------7----------7--7---5--5-----------2---2-----2--3--2--0--2-|
D |-0---------0--------0----------8------8---0--------------2---------0--5--0--0--0-|
A |---------------------------------------------------------0---------0--5--0-----0-|
E |---------------------------8--------------------1------------------------------0-|










Descargas / Downloads


Tab + 1 tab alternativo + pequeña aclaracion / Tab + 1 alternative tab + little clarification
Tab Era of legend tab 4shared
Tab Era of legend tab Mediafire




partituras/sheetmusic Partitura-tab en formato jpg / Tab-Sheet music- in jpg format

4shared
   


Mediafire
era legend1   era legend2







partituras/sheetmusic Partitura en formato pdf / Sheet music in pdf format
pdf Era of legend tab sheet 4shared
pdf Era of legend tab sheet Mediafire





Archivo Guitar pro 5 / Guitar pro 5 file
Guitar pro Era of Legend guitar pro 4shared
Guitar pro Era of Legend guitar pro Mediafire





Midi
midi Era of legend guitarra 4shared
midi Era of legend guitarra Mediafire






mp3 Era of legend TRACK 4shared
mp3 Era of legend TRACK Mediafire

Contraseña/Password:  http://siguebrillandocosmos.blogspot.com







Escuchar / Listen















Y ahora lo que todos estaban esperando....fotos de desnudos!!! (mentira :P)









Enlaces relacionados
· Partituras de los OST de Saint seiya "Made in luxemburgo"
· Disco OST 1 (La magia comienza...)




·

No hay comentarios:

Publicar un comentario en la entrada

comenten CHE!