viernes, 1 de noviembre de 2013

y se destruyó nomas el templo... Tab

hoy venimos con el tab de Corona's temple destruction, una de las piezas representativas de la pelicula de Abel (真紅の少年伝説 Shinku no shonen densetsu) cuya melodia es el leitmotiv del disco OST 5. De modo que no les puede sonar desconocida ;) Es otro BGM donde podemos escuchar la angelical voz de kazuko kawashima :D

Today we came with the tab of "Corona's temple destruction", one of the most representative pieces from the Abel's movie (真紅の少年伝説 Shinku no shonen densetsu). The melody is the leitmotiv of the OST 5 so it can't sound unknown to you. In this BGM we can hear the Kazuko Kawashima's angelical voice :D











Esta pieza musical practicamente no se escucho dentro de la serie debido a que la saga de poseidon fue muy corta. Aun asi, al dia de hoy, los fans deben reconocerla porque se usaron otras piezas con el mismo leitmotiv en la saga de hades y ademas "La leyenda de la juventud escarlata" es la pelicula de saint seiya mas vista y apreciada por los fans (Hasta el momento. A ver que tal resulta la pelicula CGI del 2014 ;) En fin, esta pieza solo suena en la escena donde Athena le habla a poseidon antes de luchar contra el.

Virtually this musical piece wasn't played inside the series because the Poseidon saga was too short. Still, as of today, the fans must recognize it because there were used other pieces with the same leitmotiv in the Hades saga. Also "The legend of crimson youth" is the most watched and appreciated movie by the Saint Seiya fans (Till now. We'll see how good the 2014 CGI movie do it ;) Anyway, this piece is played only in the scene where Athena speaks to Poseidon before the battle between them.








Es un tab relativamente sencillo. Tuve que cambiarle el tono para que quede facil en la guitarra. Pueden usar esta misma partitura para tocarla en el piano ya que el acompañamiento es tan sencillo como pulsar los acordes correspondientes 4 veces ;)


The tab is rather simple. I had to change the tone in order to make it easy on the guitar. You can use this same sheet for playing it on the piano because the accompaniment is as simple as pressing 4 times the corresponding chords ;)
















Datos/Data
·Nombre Ingles internacional : Corona Temple's Destruction
·Nombre original japones : 太陽神殿の崩壊
·Nombre japones en Romaji:  Taiyou-shinden no houkai
·Traduccion japonesa: Collapse of Sun Temple  / Colapso (derrumbre) del Templo del Sol

·Disco/Album: OST 5

·Compositor: Seiji Yokoyama 横山菁児

·Nº de Track: 14

·Duracion : 5:20














Version facil / Easy version
Disminuido en 1 tono / 1 step down

E |------------------------------------------------------------------------|
B |------------0-----1-0--0------------0---0-1-----3-1--1-0---0----0-1--3--|
G |--0--2-0-2------0--------2-0-2---2----2-------2----------2-----2--------|
D |------------------------------------------------------------------------|
A |------------------------------------------------------------------------|
E |------------------------------------------------------------------------|



E |------------7-5-3-2-0---0-2-3---2-5-3-2-3--------------------------|
B |--0-3-4-0---------------------------------3---0-1-----1-0---0------|
G |----------------------------------------------------------2---2-0--|
D |-------------------------------------------------------------------|
A |-------------------------------------------------------------------|
E |-------------------------------------------------------------------|



E |------------------------------------------------------------------------|
B |------------0-----1-0--0------------0---0-1-----3-1--1-0---0----0-1--3--|
G |--0--2-0-2------0--------2-0-2---2----2-------2----------2-----2--------|
D |------------------------------------------------------------------------|
A |------------------------------------------------------------------------|
E |------------------------------------------------------------------------|



E |------------7-5-3-2-0---0-2-3---2-5-3-2-3--------------------------|
B |--0-3-4-0---------------------------------3---0-1-----1-0---0------|
G |----------------------------------------------------------2---2-0--|
D |-------------------------------------------------------------------|
A |-------------------------------------------------------------------|
E |-------------------------------------------------------------------|



E |-----------0------1-0--0--------------0---0--1------3-1--1-0---0--|
B |--1--3-1-3------1--------3-1--3----3----3---------3----------3----|
G |------------------------------------------------------------------|
D |------------------------------------------------------------------|
A |------------------------------------------------------------------|
E |------------------------------------------------------------------|



E |----0-1--3--0-3-4-0----0--12-10-8-7-5----5-7-8---7-10-8-7--8----0-1---|
B |--3----------------------------------------------------------8--------|
G |----------------------------------------------------------------------|
D |----------------------------------------------------------------------|
A |----------------------------------------------------------------------|
E |----------------------------------------------------------------------|



E |--1-0----0----------8-6----------8-6----------------------------15----12--|
B |------3----3-1----8-----6-8----8-----6-8-----6-8---6-8---6-8-------15-----|
G |--------------------------------------------------------------------------|
D |--------------------------------------------------------------------------|
A |--------------------------------------------------------------------------|
E |--------------------------------------------------------------------------|










Version Avanzada / Advanced version
Disminuido en 1 tono / 1 step down

E |-----------------------------------------------------------------------------|
B |------------0------1-0--0--------------0---0-1------3-1--1-0----0----0-1--3--|
G |--0--2-0-2-------0--------2-0-2----2-----2--------2----------2-----2---------|
D |------------------------------0---------------------0------------------------|
A |-------------------3---------------0---------0-------------------------------|
E |--3---------3---------------------------------------------------3---------3--|



E |---------------7-5-3-2-0-------0-2-3----2-5-3-2-3----------------------------|
B |--0--3--4-0------------------------4---------------3---0--1-----1-0---0------|
G |-----------------------------------5------------0-------------------2---2-0--|
D |-------------------2-----------------------------------------0---------------|
A |--------2----------------3--------------------------------0------------------|
E |---------------0------------------------------------------------------3------|



E |-----------------------------------------------------------------------------|
B |------------0------1-0--0--------------0---0-1------3-1--1-0----0----0-1--3--|
G |--0--2-0-2-------0--------2-0-2----2-----2--------2----------2-----2---------|
D |------------------------------0---------------------0------------------------|
A |-------------------3---------------0---------0-------------------------------|
E |--3---------3---------------------------------------------------3---------3--|



E |---------------7-5-3-2-0-------0-2-3----2-5-3-2-3----------------------------|
B |--0--3--4-0------------------------4---------------3---0--1-----1-0---0------|
G |-----------------------------------5------------0-------------------2---2-0--|
D |-------------------2-----------------------------------------0---------------|
A |--------2----------------3--------------------------------0------------------|
E |---------------0------------------------------------------------------3------|



E |------------0------1-0--0-----------------0---0--1------3-1--1-0---0---|
B |--1---3-1-3------1--------3-1--3------3-----3---------3----------3-----|
G |-----------------------------------------------------------------------|
D |-------------------3------------------0----------0---------------------|
A |--3---------3------------------------------------------------------3---|
E |-------------------------------3------------------------3--------------|



E |----0-1--3--0-3-4-0----0--12-10-8-7-5---------7--8---7-10-8-7--8----0-1-----|
B |--3----------------------------------------10----9---------------8----------|
G |------------------------------------------------10--------------------------|
D |----------------2-----------------------------------------------------------|
A |---------3-----------------0----0-----3-------------------------------0-----|
E |---------------------------------------------------------------8---------3--|



E |--1-0----0----------8-6----------8-6--------------------------------15----12--|
B |------3----3-1----8-----6-8----8-----6-8-------8-------8--------8------15-----|
G |-------------------------------------------10--9---10--9----10--9-------------|
D |----------------------------------------------10------10-------10-------------|
A |---------3--------------------------------------------------------------------|
E |----------------------6---8--------6---8--------------------------------------|













Descargas / Downloads

archivo de texto con los mismos tabs + tab en tono original + una pequeña aclaracion / text file with the same tabs + tab in original tone + little clarification

Tab Corona's temple destruction tab 4shared
Tab Corona's temple destruction tab Mediafire




partituras/sheetmusic Partitura en formato JPG / Sheet music in JPG format

4shared


Mediafire
Corona1 Corona2







partituras/sheetmusic Partitura en formato PDF / Sheet music in PDF format

pdf Corona's temple destruction tab 4shared
pdf Corona's temple destruction tab Mediafire




Archivo Guitar pro 5 / Guitar pro 5 file
Guitar pro Corona's temple destruction guitar pro 4shared
Guitar pro Corona's temple destruction guitar pro Mediafire




Midi
midi Corona's temple destruction guitarra 4shared
midi Corona's temple destruction guitarra Mediafire





mp3 Corona's temple destruction Mediafire

Contraseña/Password: http://siguebrillandocosmos.blogspot.com





Escuchar / Listen
(minuto 2:33)










Enlaces relacionados

· Tabs de Abel's theme (+ guitar pro :OOO )







·

No hay comentarios:

Publicar un comentario en la entrada

comenten CHE!