viernes, 14 de octubre de 2011

Tabs de Abel's theme (+ guitar pro :OOO ) Tabpartituras/sheetmusic

OH YEA BABY! Despues de tantos pedidos, el famoso tema de abel (emblema de la pelicula de Abel "Shinku no shonen densetsu") hace su aparicion en forma de tab para guitarra :DD El "porque" de la fama y la atraccion que genera este tema es una gran incognita para mi. Yo la primera vez que lo escuche no me gusto y sinceramente al dia de hoy no se si me gusta o no :P aunque tiene la gran virtud de ser una pieza musical "sencilla" que puede transcribirse facilmente a todos los instrumentos musicales.
Asi como los 3 jueces del infierno son considerados los espectros mas poderosos de entre los 108 , El tema de abel junto con "el requiem de mime" y "remember sadness" forman el trio de BGMs mas recordados y aclamados por los fans.

OH YEA BABY! After many requests, the famous abel's theme (emblem of the abel movie "shinku no shounen densetsu") make its appearance in a guitar tab :DD The "why" of its fame and attraction is a big question for me. The first time i heard it, i didn't like it and sincerely as of today i don't know if it likes me or not :P althought it has the enormous virtue of being a "simple" piece which can be easily transcribed to the other musical instruments.
As well as the 3 infernal judges are considered the most powerfull specters among the 108, the "Abel's theme" along with "Mime's Requiem" and "Remember Sadness" are the most memorable and claimed BGMs by the fans.







La idea de hacer el tutorial en video del tema de abel (semi tutorial en realidad ya que es solamente un tab "animado") surgio del hecho de querer un video en el post y que ademas este fuera "util". Esto tambien hizo que el post se retrasara un poco (claro, 2 semanas de retraso :PP). El tab corresponde mayormente al track DECISION OF DESTINY. Hay 2 partes del tab que fueron tomadas de los tracks SAORI'S DECISION y ABEL'S THEME. Me parecio adecuado incluir esas partes para tener el tab de abel lo mas "completo" posible. El tab en el video corresponde a una version avanzada pero avanzada "facil" ya que hay otras combinaciones mas complejas. No olviden revisar el archivo de texto descargable para visualizar el tab con posiciones alternativas.

The idea of this video tutorial of the Abel's theme (In fact a Semi tutorial because this is just an "animated" tab) came out just to have a usefull video. This also delayed the post a little (Right, 2 weeks of delay :PP). The tab was made mostly from the track DECISION OF DESTINY. 2 little parts of the tab are from the tracks SAORI'S DECISION and ABEL'S THEME. I thought it was right to include these parts so the tab can be as complete as possible. The tab of the video is from an advanced version, but and "easy" advanced version because there are more complex combinations. You don't forget to check the text file for alternative positions.









Datos/Data
·Nombre Ingles internacional : Decision of destiny
·Nombre original japones : 運命の選択
·Nombre japones en Romaji: Unmei no sentaku
·Traduccion japonesa: The choice of fate / Eleccion del destino

·Disco/Album:  Original Soundtrack VIII (OST 8)

·Compositor: Seiji Yokoyama  横山菁児

·Nº de Track: 13

·Duracion : 3:40











Version facil / Easy version
(Tono original / Original tone)

SAORI'S DECISION*
ABEL'S THEME*

E |------0-----------2---2-5-7--4-2-0-2~--|------0-----------2---0--------------|
B |--0-3---2-----0-3----------------------|--0-3---2-----0-3------3-2--2-0---0--|
G |------------2--------------------------|-----------2--------------------2----|
D |---------------------------------------|-------------------------------------|
A |---------------------------------------|-------------------------------------|
E |---------------------------------------|-------------------------------------|

  



E |-5-7-5-4-2~--4-5--7-5-7-5-4-2~--|----0---0-----------2--|
B |--------------------------------|-3----3---3-2-0--3-----|
G |--------------------------------|-----------------------|
D |--------------------------------|-----------------------|
A |--------------------------------|-----------------------|
E |--------------------------------|-----------------------|
  



E |-5-7-5-4-2~--4-5--7-5-7-5-4-2~--|----0---0-------------|
B |--------------------------------|-3----3---3--2-2---0~-|
G |--------------------------------|-----------------2----|
D |--------------------------------|----------------------|
A |--------------------------------|----------------------|
E |--------------------------------|----------------------|




E |------0-----------2---2-5-7--4-2-0-2~--|------0-----------2---0--------------|
B |--0-3---2-----0-3----------------------|--0-3---2-----0-3------3-2--2-0---0--|
G |------------2--------------------------|-----------2--------------------2----|
D |---------------------------------------|-------------------------------------|
A |---------------------------------------|-------------------------------------|
E |---------------------------------------|-------------------------------------|
  


E |--------0-2-4--|-5-7-5-4-2~--4-5--7-5-7-5-4-2~--|----0---0-----------2--|
B |--0-2-3--------|--------------------------------|-3----3---3-2-0--3-----|
G |---------------|--------------------------------|-----------------------|
D |---------------|--------------------------------|-----------------------|
A |---------------|--------------------------------|-----------------------|
E |---------------|--------------------------------|-----------------------|


                                                       
E |-5-7-5-4-2~--4-5--7-5-7-5-4-2~-|----0---0-------------|--------0---0-------------|
B |-------------------------------|-3----3---3--2-2---0~-|-0-2-3----3---3--2-2---0--|
G |-------------------------------|-----------------2----|---------------------2----|
D |-------------------------------|----------------------|--------------------------|
A |-------------------------------|----------------------|--------------------------|
E |-------------------------------|----------------------|--------------------------|










Version avanzada / Advanced version
(Tono original / Original tone)

E |--------0--------|--------2--|--2--5--7--4--2--0--|--2--|
B |--0--3----2------|-----3-----|--3--------5--------|--3--|
G |--0-------2---2--|--4--------|--2--------4--------|--2--|
D |--0-------2------|--4--------|--0-----------------|--0--|
A |--2-------0------|--2--------|--------------------|-----|
E |--3--------------|-----------|--------------------|-----|




E |--------0---------|--------2--|--0------------------|-----|
B |--0--3-----2------|-----3-----|--2--3--2---2--0-----|-----|
G |--0--------2---2--|--4--------|--2---------------2--|--4--|
D |--0--------2------|--4--------|--2------------------|--4--|
A |--2--------0------|--2--------|---------------------|--2--|
E |--3---------------|-----------|---------------------|-----|



 
E |--5-7-5-4----4--|--5-7-5-7-5-4----|----0---0----------|--2----|
B |----------7-----|--------------7--|--3---3---3-2-0-3--|-------|
G |------7---------|-----------------|-------------------|----4--|
D |--0-------------|--0--------------|--------4----------|----4--|
A |------0---------|--------0--------|--2----------------|----2--|
E |----------------|-----------------|-------------------|-------|




E |--5-7-5-4----4--|--5-7-5-7-5-4----|----0---0-----------|-----|
B |----------7-----|--------------7--|--3---3---3-2-2-----|-----|
G |------7---------|-----------------|--------0--------2--|--4--|
D |--0-------------|--0--------------|--------0--------2--|--4--|
A |------0---------|--------0--------|--------------0--0--|--2--|
E |----------------|-----------------|--3--------------0--|-----|




E |--------0--------|--------2--|--2--5--7--4--2--0--|--2--|
B |--0--3----2------|-----3-----|--3--------5--------|--3--|
G |--0-------2---2--|--4--------|--2--------4--------|--2--|
D |--0-------2------|--4--------|--0-----------------|--0--|
A |--2-------0------|--2--------|--------------------|-----|
E |--3--------------|-----------|--------------------|-----|




E |--------0---------|--------2--|--0------------------|-----|
B |--0--3-----2------|-----3-----|--2--3--2---2--0-----|-----|
G |--0--------2---2--|--4--------|--2---------------2--|--4--|
D |--0--------2------|--4--------|--2------------------|--4--|
A |--2--------0------|--2--------|---------------------|--2--|
E |--3---------------|-----------|---------------------|-----|

   


E |-----------------4--|--5-7-5-4----4--|--5-7-5-7-5-4----|-----0---0----------|
B |--------3--5--7--5--|----------7-----|--------------7--|---3---3---3-2-0-3--|
G |--4--6--4--6--7-----|------7---------|-----------------|--------------------|
D |--5--7--------------|--0-------------|--0--------------|---------4----------|
A |--------------------|------0---------|--------0--------|---2----------------|
E |--------------------|----------------|-----------------|--------------------|




E |--2----|--5-7-5-4----4--|--5-7-5-7-5-4----|----0---0-----------|-----|
B |-------|----------7-----|--------------7--|--3---3---3-2-2-----|-----|
G |----4--|------7---------|-----------------|--------0--------2--|--4--|
D |----4--|--0-------------|--0--------------|--------0--------2--|--4--|
A |----2--|------0---------|--------0--------|--------------0--0--|--2--|
E |-------|----------------|-----------------|--3--------------0--|-----|


   

E |-------|-----0-----0-------------|-----|
B |--0-2--|--3-----3----3--2--2-----|-----|
G |-------|--0----------------2--2--|--4--|
D |-------|--0----------------2-----|--4--|
A |-------|--2----------------0-----|--2--|
E |-------|--3----------------------|--2--|














Descargas / Downloads

Tab con algunas posiciones alternativas y alguna que otra aclaracion.../ Tab with some alternative positions and some clarification...

Tab Decision of destiny (Abel's theme)4shared
Tab Decision of destiny (Abel's theme) Mediafire








partituras/sheetmusic Partitura-Tab en formato jpg / Sheet music-Tab in jpg format

4shared



Mediafire
abel tab1 abel tab2









partituras/sheetmusic Partitura-Tab en formato pdf / Sheet music-Tab in pdf format
pdf Decision of Destiny (Abel's theme)tab 4shared
pdf Decision of Destiny (Abel's theme)tab Mediafire






Archivo Guitar pro / Guitar pro File
Guitar pro Decision of destiny guitar pro 5 4shared
Guitar pro Decision of destiny guitar pro 5 Mediafire





Midi
midi Decision of destiny en guitarra 4shared
midi Decision of destiny en guitarra Mediafire






4Shared
mp3 Decision of destiny
mp3 Abel's theme
mp3 Saori's decision


mediafire
mp3 Decision of destiny
mp3 Abel's theme
mp3 Saori's decision

Contraseña/Password: http://siguebrillandocosmos.blogspot.com


















Enlaces relacionados
· Partituras de los OST de Saint seiya "Made in luxemburgo"
· Partituras (solfeos) para Flauta del tema de Abel y Pegasus Fantasy
· Midis y Partituras de Saint Seiya de Sigue brillando Cosmos
· El tema de Abel "en arpa" :P
· El tema de Abel en guitarra ;)





.

5 comentarios:

Anónimo dijo...

te kedo con ganas amigo

Cogedor_barato dijo...

:D

Anónimo dijo...

Gracias loco, soy principiante e intentaré primero con la easy versión

Cogedor_barato dijo...

Yo siempre prefiero que las versiones faciles se toquen en los primeros 3 trastes dado que a los principiantes se les complica un poco el moverse a los demas trastes. Por desgracia me olvide de hacer eso y quedo esa version facil fiel en la altura de las notas pero que hace uso de trastes mas alla de los 3 primeros. En algun momento me pongo las pilas y hago una version facil que abarque solo los 3 primeros trastes para los bien principiantes (obviamente voy a tener que disminuir octavas y se va a escuchar mas grave pero bue...). Un saludo chicos

Anónimo dijo...

Pues a mí me encanta. Mira que las OVAs de Saint Seiya no me parecen gran cosa comparadas con la serie original, pero ésta es mi favorita de las cuatro y esta melodía se me quedó dentro. Muchas gracias por las tabs.

Publicar un comentario en la entrada

comenten CHE!