martes, 18 de octubre de 2011

Tab del intro de la Saga de Asgard Tabpartituras/sheetmusic

Hace poco ( :P ) fue posteada la partitura para piano de TOWARD VALHALLA TEMPLE (contribucion de Jorge Cantoriano). Al ver esa partitura tan sencilla me atrevi a intentar tocarla en la guitarra. Grande fue mi sorpresa al ver que pude tocarla completa sin ningun problema y con practicamente nada de arreglos. Inmediatamente lo transcribi y bueno, aqui tenemos el tab para guitarra de dicho track. No es un tab para nada dificil, solo requiere algo de coordinacion :P el nivel del tab esta entre principiante y medio.

Recently ( :P ) the sheet music of TOWARD VALHALLA TEMPLE (contribucion de Jorge Cantoriano) was posted. When i looked that this sheet music was so simple, i dared to play it in the guitar. The surprise was big when i played it and i was able to do it completely without any trouble and, almost, any arrangement. I transcribed at once and well, here we have the guitar tab of such track. It's not a difficul tab at all, it only requires a little of coordination :P the tab level is between begginer and medium.








Ademas de los tabs en texto, de ahora en adelante vamos a incluir videotabs (tutoriales), partituras y archivos guitar pro como para facilitar y diversificar el aprendizaje de la pieza musical/cancion en la guitarra. Tambien se haran con los tabs de posts anteriores asi que perdonen si los posts se retrasan un poco pero es por el exceso de trabajo

Besides the text tabs, from now on we'll include videotabs (tutorials), sheet music and guitar pro files to make more easier the learning of the song/musical piece in guitar. The same will be done with the previous posts so forgive if the posts are late but it's because the overwork(haaaaaa! XD). Everything is to give a better service (???).











Datos/Data
·Nombre original japones : ワルハラ宮殿をめざせ
·Nombre japones en Romaji: Waruhara kyuuden womezase
·Traduccion japonesa:To the Valhalla palace / Hacia el palacio Valhalla

·Disco/Album:  Original Soundtrack VI (OST 6)

·Compositor: Seiji Yokoyama  横山菁児

·Nº de Track: 6

·Duracion : 1:05













Tab en tono original / Tab in original tone


E |----0---0---0---0---0---0---0---0-|---0---0---0---0---0---0---0---0--|
B |------0---1---0-------0---1---0---|-----0---1---0-------0---1---0----|
G |--2---------------2---------------|-2---------------2----------------|
D |----------------------------------|----------------------------------|
A |----------------------------------|----------------------------------|
E |--------------------------------3-|-3--------------------------------|

       
                               
E |----0---0---0---0---0---0---0---0-|---0---0---0---0---0---0---0---0--|
B |------0---1---0-------0---1---0---|-----0---1---0-------0---1---0----|
G |--2---------------2---------------|-2---------------2----------------|
D |----------------------------------|----------------------------------|
A |----------------------------------|----------------------------------|
E |--------------------------------1-|-1--------------------------------|


                                       
E |----0---0---0---0---3---3---3-1-3-|-0-8---7---5---3---1---0----------|
B |------0---1---3---1---3---4-------|---------------------------3---1--|
G |--2-------------------------------|-----7---5---4---2---0------------|
D |----------------------------------|-------------------------3---2----|
A |----------------------------------|----------------------------------|
E |--------------------------------0-|-0--------------------------------|



E |----0---0---0---0---0---0---0---0-|---0---0---0---0---0---0---0---0--|
B |------0---1---0-------0---1---0---|-----0---1---0-------0---1---0----|
G |--2---------------2---------------|-2---------------2----------------|
D |----------------------------------|----------------------------------|
A |--------------------------------0-|-0--------------------------------|
E |----------------------------------|----------------------------------|



E |----0---0---0---0---0---0---0---0-|---0---0---0---0---0---0---0---0--|
B |------0---1---0-------0---1---0---|-----0---1---0-------0---1---0----|
G |--2---------------2---------------|-2---------------2----------------|
D |----------------------------------|----------------------------------|
A |----------------------------------|----------------------------------|
E |--------------------------------3-|-3--------------------------------|



E |----0---0---0---0---0---0---0---0-|---0---0---0---0---0---0---0---0-|--0--|
B |------0---1---0-------0---1---0---|-----0---1---0-------0---1---0---|-----|
G |--2---------------2---------------|-2---------------2---------------|--2--|
D |----------------------------------|-----------------2---------------|-----|
A |----------------------------------|---------------------------------|--0--|
E |--------------------------------1-|-1---------------0---------------|-----|














Descargas / Downloads

Tab descargable con alguna que otra posicion alternativa / Downloable tab with some alternative positions
Tab Toward valhalla temple tab 4shared
Tab Toward valhalla temple tab Mediafire







partituras/sheetmusic Partitura-tab en formato jpg / Tab-Sheet music- in jpg format

4shared



Mediafire
valhalla1 valhalla2







partituras/sheetmusic Partitura en formato pdf / Sheet music in pdf format
pdf Toward valhalla temple guitarra 4shared
pdf Toward valhalla temple guitarra Mediafire





Archivo Guitar pro 5 / Guitar pro 5 file
Guitar proToward walhalla temple guitar pro 4shared
Guitar proToward walhalla temple guitar pro Mediafire




Midi
midi Toward Valhalla temple guitarra 4shared
midi Toward Valhalla temple guitarra Mediafire







mp3 Toward Valhalla Temple 4shared
mp3 Toward Valhalla Temple Mediafire


Contraseña/Password:  http://siguebrillandocosmos.blogspot.com






Escuchar / Listen




















Enlaces relacionados
·Siete guerreros portando las legendarias armaduras sagradas...
·Partituras de los OST de Saint seiya "Made in luxemburgo"
·Magia pianistica de la mano de Absolutepitcher
·Inauguramos este blog de saint seiya con partituras de Cogedor Barato (o sea yo :P)
·Asgard en piano: Find Balmung Sword! (OST 6)
·Unas cuantas partituras de Saint seiya "repetidas" que les pueden interesar :)




.

2 comentarios:

Einherjer dijo...

Los links están caídos :(

Cogedor_barato dijo...

si, todos caidos :( arreglo los links hoy o a mas tardar mañana si el internet no me falla :)

Publicar un comentario en la entrada

comenten CHE!