domingo, 23 de septiembre de 2012

Apertura de la "Asgard movie" en tab Tab

Hoy le toco el turno al track "Opening northern legend", perteneciente al soundtrack de la 2da. pelicula de Saint seiya: La ardiente batalla de los dioses (la de Asgard con Dolbar :P). Es el primer track del disco y tambien es la primer pieza que suena en la pelicula, haciendo honor a su nombre. Melodia sencilla, acompañamiento sencillo, magistral pieza (como la mayoria de las creaciones del sensei Yokoyama ;)

Today is the turn of the track "Opening northern legend". Such track belongs to the 2nd. Saint seiya movie soundtrack: The Heated War of the Gods (The Asgard one with Dolbar :P). Is the first track of the album and also is the first piece played in the movie, living up to its name. Simple melody, simple accompaniment, masterful piece (like most of the Sensei Yokoyama's creations ;)








Version 1




Dentro de la serie no tuvo una escena particular o representativa asi que seria en vano mencionarlas. Respecto al tab en si, hice 2 versiones "diferentes" (o al menos ligeramente diferentes). En esencia son lo mismo, solo que varia el acompañamiento. Mientras probaba el tab a veces me gustaba 1 version, al otro dia me gustaba la otra. Que 1 era mas fiel al track, que la otra era una version mas acorde, etc. Que version dejo? mmmmm no pude dormir durante dias y ante tan dificil cuestion decidi dejar la eleccion en vuestras manos :P prueben ambas y vean cual les satisface mas. Iba a subir 1 sola version a youtube (la fiaca vio...) pero bueno, ya que estamos subo ambas.


Inside the series it doesn't had a particular or representative scene so it'll be in vain to mencion it. About the tab itself, i made 2 "different" versions (or slightly different at least). Essentially they're the same. The only variation is the accompaniment. While i was testing the tab sometimes i liked 1 version, the next day i liked the other one. Sometimes i thought that 1 was more faithful to the track or the other was a better transcription, etc. What version do i publish? mmmmm i couldn't sleep for days and in the presence of such hard issue i decided to leave that choice in your hands :P Try both and see which one satisfy you more. i was going to upload only 1 version to youtube (so lazzy) but well, we're already here so i upload both.



Version 2















Datos/Data
·Nombre Ingles internacional : Opening - Northern Legend
·Nombre original japones : 序章;北欧の神話
·Nombre japones en Romaji:  Joshou : Hokuou no shinwa 
·Traduccion japonesa: Overture:  Nordic myth  / Obertura: Mito Nordico


·Disco/Album: OST IV

·Compositor: Seiji Yokoyama 横山菁児

·Nº de Track: 1

·Duracion : 1:55












Version facil / Easy version


E |------0--3-2---0-----------------0-3-1-0---------------0-3-1-0---|
B |--1-3--------3-------3---3-2----------------3---3-2--------------|
G |-------------------2---3-------2--------------3-----2------------|
D |-----------------------------------------------------------------|
A |-----------------------------------------------------------------|
E |-----------------------------------------------------------------|



E |------0--3-2---0-----0-------------0--------0-3-9-12----------|
B |--1-3--------3----------3---3-2-------3---------------3-------|
G |-------------------2------3------2------3-2-------------2-3---|
D |--------------------------------------------------------------|
A |--------------------------------------------------------------|
E |--------------------------------------------------------------|



E |----0-7-3---4-5-6-7--|
B |--3------------------|
G |---------------------|
D |---------------------|
A |---------------------|
E |---------------------|







Version avanzada 1 / Advanced version 1

E|----------0--3----2-------0-------------------------0---3---1--|
B|--1--3----1-------3--3----1-------3-----3----2----------3---3--|
G|--2-------2-------2-------2--2----3--3-------2--2-------3---2--|
D|--2-------2-------0-------2-------3----------2----------5---0--|
A|--0-------0-------0-------0-------1----------0----------5---0--|
E|---------------------------------------------------------------|



E|--0---------------------0----3----1----0--|
B|--2----3-----3----2----------3----3----2--|
G|--2----3--3-------2--2-------3----2----2--|
D|--2----3----------2----------5----0----2--|
A|--0----1----------0----------5----0----0--|
E|------------------------------------------|



E|--------------------|-0--------3--------|-2-----------------|
B|--1--------3--------|-------------------|----------3--------|
G|--------------------|-------------------|-------------------|
D|--------------------|-------------------|-0--0--0--0--0--0--|
A|--0--0--0--0--0--0--|-0--0--0--0--0--0--|-------------------|
E|--------------------|-------------------|-------------------|



E|--0--------------0--|-------------------|----------------0--|
B|--------------------|-3--------------3--|-2-----------------|
G|-----------2--------|----------3--------|----------2--------|
D|--------------------|-------------------|-------------------|
A|--0--0--0--0--0--0--|-1--1--1--1--1--1--|-0--0--0--0--0--0--|
E|--------------------|-------------------|-------------------|



E|--------------------|-----------0--------3--------9--------|
B|--3-----------------|--------------------------------------|
G|-----------3--------|--2-----------------------------------|
D|--------------------|--------------------------------------|
A|--1--1--1--1--1--1--|--0--0--0--0--0--0--0--0--0--0--0--0--|
E|--------------------|--------------------------------------|



E|--12-----------------3----------|------7-------------------|
B|---------------------3---3------|------------9---10-11-12--|
G|---------------------3-----2-3--|-7-9----9-----------------|
D|---------------------5----------|---9----------------------|
A|---0--0--0--0--0--0--5----------|---7----------------------|
E|--------------------------------|--------------------------|








Version avanzada 2 / Advanced version 2

E|--------------------|-0--------3--------|-2-----------------|
B|--1--------3--------|-------------------|----------3--------|
G|--------------------|-------------------|-------------------|
D|--------------------|-------------------|-0--0--0--0--0--0--|
A|--0--0--0--0--0--0--|-0--0--0--0--0--0--|-------------------|
E|--------------------|-------------------|-------------------|



E|--0-----------------|-------------------|----------------0--|
B|--------------------|-3--------------3--|-2-----------------|
G|-----------2--------|----------3--------|----------2--------|
D|--------------------|-------------------|-------------------|
A|--0--0--0--0--0--0--|-1--1--1--1--1--1--|-0--0--0--0--0--0--|
E|--------------------|-------------------|-------------------|



E|--3--------1--------|-0-----------------|-------------------|
B|-----------3--------|-------------------|-3--------------3--|
G|--3-----------------|-2-----------------|----------3--------|
D|-----------0--0--0--|-------------------|-------------------|
A|--1--1--1-----------|-0--0--0--0--0--0--|-1--1--1--1--1--1--|
E|--------------------|-------------------|-------------------|



E|-----------------0--|-3--------1--------|-0-----------------|
B|--2-----------------|----------3--------|-------------------|
G|-----------2--------|-3-----------------|-2-----------------|
D|--------------------|----------0--0--0--|-------------------|
A|--0--0--0--0--0--0--|-1--1--1-----------|-0--0--0--0--0--0--|
E|--------------------|-------------------|-------------------|



E|--------------------|-0--------3--------|-2-----------------|
B|--1--------3--------|-1-----------------|-3--------3--------|
G|--2-----------------|-2-----------------|-2-----------------|
D|--2-----------------|-2-----------------|-0--0--0--0--0--0--|
A|--0--0--0--0--0--0--|-0--0--0--0--0--0--|-------------------|
E|--------------------|-------------------|-------------------|



E|--0--------------0--|-------------------|----------------0--|
B|--1-----------------|-3--------------3--|-2-----------------|
G|--2--------2--------|-3--------3--------|-2--------2--------|
D|--2-----------------|-3-----------------|-2-----------------|
A|--0--0--0--0--0--0--|-1--1--1--1--1--1--|-0--0--0--0--0--0--|
E|--------------------|-------------------|-------------------|



E|--------------------|-----------0--------3--------9--------|
B|--3-----------------|--------------------------------------|
G|--3--------3--------|--2-----------------------------------|
D|--3-----------------|--------------------------------------|
A|--1--1--1--1--1--1--|--0--0--0--0--0--0--0--0--0--0--0--0--|
E|--------------------|--------------------------------------|



E|--12-----------------3----------|------7-------------------|
B|---------------------3---3------|------------9---10-11-12--|
G|---------------------3-----2-3--|-7-9----9-----------------|
D|---------------------5----------|---9----------------------|
A|---0--0--0--0--0--0--5----------|---7----------------------|
E|--------------------------------|--------------------------|



















Descargas / Downloads


Archivo con los 3 tabs juntos / File with all the 3 tabs
Tab Opening northern legend tab 4shared
Tab Opening northern legend tab Mediafire




partituras/sheetmusic Partitura-tab en formato jpg / Tab-Sheet music- in jpg format

4shared Version 1



4shared Version 2
   




Mediafire Version 1
nothernv11 nothernv12


Mediafire Version 2
nothernv21 nothernv1222








partituras/sheetmusic Partitura en formato pdf / Sheet music in pdf format

pdf Op Northern legend V1 4shared
pdf Op Northern legend V1 Mediafire

pdf Op Northern legend V2 4shared
pdf Op Northern legend V2 Mediafire






Archivo Guitar pro 5 / Guitar pro 5 file
Guitar proOpening northern legend (version 1) 4shared
Guitar proOpening northern legend (version 1) Mediafire

Guitar proOpening northern legend (version 2) 4shared
Guitar proOpening northern legend (version 2) Mediafire





Midi
midi Opening northern legend V1 guitarra 4shared
midi Opening northern legend V1 guitarra Mediafire

midi Opening northern legend V2 guitarra 4shared
midi Opening northern legend V2 guitarra2 Mediafire





Mp3
mp3 Opening northern legend TRACK 4shared
mp3 Opening northern legend TRACK Mediafire

Contraseña/Password: http://siguebrillandocosmos.blogspot.com






Escuchar / Listen












Y ya que estamos, si quieren ver la pelicula en HD latino...






Enlaces relacionados
· Partituras de los OST de Saint seiya "Made in luxemburgo"



·

No hay comentarios:

Publicar un comentario en la entrada

comenten CHE!