domingo, 30 de septiembre de 2012

El tab infernal !!! Tab

Si, si, otro tab :D "Child of dawn" (2do movimiento) de la pelicula de Lucifer. Otra genialidad del sensei Yokoyama que merecio el esfuerzo de 1 transcripcion para guitarra (esfuerzo placentero, claro ;)

Yes, yes, another tab :D "Child of dawn" (2nd movement )from the Lucifer's movie. Another brilliant composition from the Yokoyama Senseiwhich deserved the effort of making the guitar transcripcion (delectable effort of course ;)









Esta pieza es un leitmotiv del disco, por lo tanto puede ser facilmente confundida con otras piezas. Seguramente muchos la confundiran con la pieza que suena en la muerte de shaka, y no es para menos ya que son casi identicas (y ademas se encuentran en el mismo track). Para que se orienten mejor les comento que esta pieza fue usada al principio de la ova 10 de hades Santuario donde Buda le habla a shaka acerca del octavo sentido.

Remember that this piece is one of the leitmotivs in the album, so it can be easily confused with other pieces. Many of you will confuse it with the piece played in Shaka's death scene and is not your fault because both are almost identical (and they're in the same track). If you can't identify it, let me tell you that this piece was played at the beggining of the Hades ova 10 where Buda tells shaka about the 8th sense.








Porsupuesto, tambien fue usada en la Pelicula de Lucifer. En la parte donde el templo de lucifer (pandemonium) emerge dentro del santuario.

Of course, it was also used in the lucifer's movie. In the scene where the lucifer's temple rise (pandemonium) in the sanctuary







El tab es de lo mas sencillo asi que no hay mucha explicacion. Vean, aprendan, practiquen y toquen :)

The tab is very easy so there's no further explanation. Watch, learn, practice and play :)













Datos/Data
·Nombre Ingles internacional : Child Of Dawn, Lucifer
·Nombre original japones : 暁の子ルシファー
·Nombre japones en Romaji:  Akatsuki no ko rushifaa 
·Traduccion japonesa: Child of dawn Lucifer  / Niño del alba Lucifer


·Disco/Album: OST VIII

·Compositor: Seiji Yokoyama 横山菁児

·Nº de Track: 2

·Duracion : 3:38















Version facil / Easy version

E |------------------0---------3-1-------------------------------------|
B |--------------------3-3---3-----------------0-----------------------|
G |--2-2-0-3--2----2------------------2-2-2-2-----------2-2-0-0---2-2--|
D |----------------------------------------------2---------------------|
A |--------------------------------------------------------------------|
E |--------------------------------------------------------------------|



E |-----------0---------------------------------------------------------------|
B |-0-1-1-3-----1---0-------------0-1---------0-1-1-3-0-----------------------|
G |-------------------2-2-1-2---2-----3-2---2-----------2---------------------|
D |--------------------------------------------------------2-3-0-2---0-----2--|
A |----------------------------------------------------------------3---2-3----|
E |---------------------------------------------------------------------------|







Version avanzada / Advanced version 

E |------------------|---0----------3--1--------------|-----------0----------------|
B |------------------|-----3--3---3----1------------0-|--------1--1----------------|
G |----2--2--0--3--2-|-2------0--------2--2-2-2--2--0-|------0----0----------2-2-0-|
D |----2--------3--2-|--------0--------3---------3--2-|-2--2------2----------------|
A |-0--0--------1--0-|--------2------------------3--2-|-3---------3---2-0--0-------|
E |-------------1--0-|--------3------------------1----|-0--------------------------|



E |--------------------------|--------------------------|--------------------0-----|
B |--------------------------|--------------0-----1-----|--1-----3-----------------|
G |--0----------------2------|--2-----------------------|--------------------------|
D |--------------------------|--------------------------|--0--0--0--0--0--0--0--0--|
A |--------------------------|--------------------------|--------------------------|
E |--3--3--3--3--3--3--3--3--|--1--1--1--1--1--1--1--1--|--------------------------|



E |--------------------------|--------------------------|--------------------------|
B |--1-----------0-----------|--------------------------|--------------------------|
G |--------------------2-----|--2-----------1-----------|--2-----------------------|
D |--2--2--2--2--2--2--2--2--|--0--0--0--0--2--2--2--2--|--------------------------|
A |--------------------------|--------------------------|--0--0--0--0--0--0--0--0--|
E |--------------------------|--0--0--0--0--0--0--------|--------------------------|



E |---------------------------------------------------------------------|
B |-------0--1----------------0-1--1--3--0------------------------------|
G |-----2-------3--2--------2------2-----0---2--------------------------|
D |-------------3--2---------------3-----0---2-----2-3-0-2---0-------2--|
A |--0----------1--0---------------------2---0-------------3---2--3-----|
E |-------------1--0---------------------3---0--------------------5-----|










Descargas / Downloads

tab listo para imprimir / tab ready for printing
Tab Child of dawn, lucifer (2) tab 4shared
Tab Child of dawn, lucifer (2) tab Mediafire





partituras/sheetmusic Partitura-tab en formato jpg / Tab-Sheet music- in jpg format

4shared



Mediafire
childdawn1 childdawn2






partituras/sheetmusic Partitura en formato pdf / Sheet music in pdf format

pdf Child of dawn,lucifer(2)guitarra 4shared
pdf Child of dawn,lucifer(2)guitarra Mediafire





Archivo Guitar pro 5 / Guitar pro 5 file
Guitar pro Child of dawn, lucifer guitar pro 4shared
Guitar pro Child of dawn, lucifer guitar pro Mediafire




Midi
midi Child of dawn, lucifer guitarra 4shared
midi Child of dawn, lucifer guitarra Mediafire





mp3 Child of dawn, lucifer 4shared
mp3 Child of dawn, lucifer Mediafire

Contraseña/Password: http://siguebrillandocosmos.blogspot.com






Escuchar / Listen
(minuto 0:41)








Enlaces relacionados
· Partituras de los OST de Saint seiya "Made in luxemburgo"
· Este frances sabe tocar el piano...




·

No hay comentarios:

Publicar un comentario en la entrada

comenten CHE!