lunes, 11 de febrero de 2013

El final de Poseidon para guitarra Tab

Esta pieza musical tiene el honor de ser la ultima que se escucha en la serie (Ok, la "serie clasica". Las ovas de hades son un tema aparte). Tambien tiene el honor de haber sido usada 1 sola vez en TODO Saint Seiya ("TODO" incluye Serie clasica, Ovas de Hades, peliculas, Lost Canvas y Omega :P). Esto ultimo no es raro ya que la saga de Poseidon duro solo 14 episodios y el motivo de la pieza inspira escenas de "esperanza" o da idea de "final feliz". Dado el tono angustiante de la saga, no habia muchas escenas posibles para usar esta pieza ^_^ Aun asi, esto hizo que el final fuera mas especial para los fans :D

This musical piece has the honour of being the last one played in the series (OK, the "classic series". The Hades' ovas are another subject). It also has the honour of being played only 1 time in the WHOLE series ("WHOLE" includes Classic series, Hades' ovas, movies, Lost Canvas and Omega :P). That's not rare because the Poseidon saga lasted only 14 episodes and the motif of the piece inspires "hope" scenes / give us an idea of "happy ending". Given the distressing tone of the saga, there weren't many posible scenes where they can use this piece ^_^ Even so, all this made the end more special for the fans :D








El track dura mas de 4 minutos lo que se traduce en mucho trabajo ¬¬ por suerte el Sensei Yokoyama coloco esta pieza en una clave "facil", lo que permite usar notas naturales y acordes sencillos. Es interesante notar la predileccion de Seiji Yokoyama por este tipo de afinacion, casi como si nos quisiera facilitar el trabajo de transcribir y tocar su musica :D Ah, para ser justos debo mencionar que ahorre mucho trabajo gracias a la partitura hecha por Diaz de carvalho romaniga. De ahi saque los tiempos y algunas notas aunque si la hubiese revisado desde el principio me habria ahorrado un 70% del trabajo :'(

The track is more than 4 minutes long so that means a lot of work ¬¬ luckily Yokoyama sensei put this piece in a "easy" key which let us use natural notes and simple chords. It's interesting to notice the Seiji Yokoyama's preference for this tuning, like if he wanted to make us easier to do transcriptions and play his music :D oh, to be fair i have to say that i save much of the work thanks to the sheet music made by Diaz de carvalho romaniga. I took the times and some notes. Maybe if i had checked it from the begining i would save like 70% of the effort :'(



Version 1






De esta pieza musical hice 2 tabs. Al principio pense en publicar solo 1 pero como soy tan generoso les dejo ambas como en el post del track Opening northern legend a ver cual les gusta o funciona mejor. La version 1 que utiliza los acordes completos es la que yo consideraria "mas dificil" porque hay que usar mas dedos y ser mas rapidos en los cambios. La version avanzada 2 "mas facil" reemplaza el acorde por 1 nota representativa del mismo y tiene acompañamientos extras. Modestia aparte, creo que son buenas adaptaciones para 1 guitarra aunque a la hora de tocar las composiciones de Seiji Yokoyama en las que utiliza la bateria y el bajo lento, yo siempre recomiendo 2 guitarras. Quizas en este caso tendria que ser 1 guitarra y 1 mandolina :P

I made 2 tabs from this musical piece. First i thought in just publish one of them but since i am so generous i give you both, like in the post of the track Opening northern legend so you can decide which like or work better for you. The version 1 which use the whole chords mostly is the one that i would consider "more difficult" because you must use more fingers and be more quickly with the changes. The version 2 is the "easier" and it replace the chords for a single note and also have some extra notes. Modesty aside, i think they're good transcriptions for 1 guitar although i always recommend to use 2 guitars for the Seiji Yokoyama's compositions that use drums and slow bass. Maybe in this case it should be 1 guitar and 1 mandoline :P



Version2















Datos/Data
·Nombre Ingles internacional : Under Sea Temple
·Nombre original japones : 海底神殿 
·Nombre japones en Romaji:  Kaitei shinden
·Traduccion japonesa: Seabed Temple  / Templo del fondo del mar


·Disco/Album: OST VII

·Compositor: Seiji Yokoyama 横山菁児

·Nº de Track: 1

·Duracion : 4:19









Version facil / Easy version

E |--3--1-0-1--3------------------------3--5-3-5--1-------0--|
B |-------------------1------3--1-----------------------1----|
G |-----------------0---3------------0----------------2------|
D |----------------------------------------------------------|
A |----------------------------------------------------------|
E |----------------------------------------------------------|




E |----0--------0-------------------------------------------------|
B |-------3-2-3-------------0--------0-1-----0-1-3-----3-0--0--0--|
G |-------------------2-0-----2----2-------2---------2------------|
D |--2--------------2---------------------------------------------|
A |---------------------------------------------------------------|
E |---------------------------------------------------------------|




E |---3---1-0-1---3--------------------3--5-3-5--1--------------|
B |---------------------1----3--1----------------------1--3--3--|
G |-0-----------------0---3---------0----------------2----------|
D |-------------------------------------------------------------|
A |-------------------------------------------------------------|
E |-------------------------------------------------------------|




E |----0---0--1---------0----3--3----8--3----3--1--------0---0--------------|
B |--3---3-----------1--------------------------------1--------3---3-1-0-1--|
G |----------------2--------------------------------2-----------------------|
D |-------------------------------------------------------------------------|
A |-------------------------------------------------------------------------|
E |-------------------------------------------------------------------------|




E |------0---0-0-0-3--3---8-----7-7--5-5----1-3-5----5-5-5-7----3--3--1--3--|
B |--1-3-----------------------------------------------------7-----------0--|
G |----------------------------------------------------------------------0--|
D |-------------------------------------------------------------2--1--0--0--|
A |-------------------------------------------------------------------------|
E |-------------------------------------------------------------------------|




E |-------------------0---0-1-----------------------------------------------------|
B |-----1--0--0-----1-----------0--1--------------0-1-3---------------------------|
G |--0----------2-----------------------------------------------------------------|
D |-----------------------------------------0-2-4---------------------------------|
A |-------------------------------------0-3----------------0---0---0--2-3-2-3-2-3-|
E |-----------------------------------1------------------3---3---3----------------|




E |----------------------------------------------------------0-1-0-1-0-1---|
B |--------------------------------0---0---0---1-3-1-3-1-3-----------------|
G |------------------0---0---0---2---2---2---------------------------------|
D |--0-2-0-2-0-2---3---3---3-----------------------------------------------|
A |------------------------------------------------------------------------|
E |------------------------------------------------------------------------|




E |---3---1-0-1---3--------------------3--5-3-5--1--------------|
B |---------------------1----3--1----------------------1--3--3--|
G |-------------------0---3---------0----------------2----------|
D |-------------------------------------------------------------|
A |-------------------------------------------------------------|
E |-------------------------------------------------------------|




E |----0---0--1---------0----3--3----8--3----3--1--------0---0--------------|
B |--3---3-----------1--------------------------------1--------3---3-1-0-1--|
G |----------------2--------------------------------2-----------------------|
D |-------------------------------------------------------------------------|
A |-------------------------------------------------------------------------|
E |-------------------------------------------------------------------------|




E |--------0--1--------------------1--------0---0---------------3---|
B |------1----------------------------1--3----3-----------------1---|
G |--0-0---------------------0-1-----------------------------0--0---|
D |-----------3--------0-2-3---3--------------------------------2---|
A |--------------0-2-3----------------------3------------3------3---|
E |--------------------------------------------------3--------------|




E |--------0--1--------------------1--------0---0------3---|
B |------1----------------------------1--3----3------------|
G |--0-0---------------------0-1--------------------0------|
D |--------------------0-2-3-------------------------------|
A |--------------0-2-3-------------------------------------|
E |--------------------------------------------------------|









Version avanzada 1 / Advanced version 1

E |--3--1-0-1--3------------------------3--5-3-5--1-------0--|
B |-------------------1------3--1-----------------------1----|
G |-----------------0---3------------0----------------2------|
D |-----------------------------------------------3----------|
A |--3---------3--------1-------3-------3--------------------|
E |-------------------------------------------------------0--|




E |----0--------0-------------------------------------------------------|
B |-------3-2-3-------------0--------0-1-----0-1-3-----3-0----0---0-----|
G |-------------------2-0-----2----2-------2---------2------------0--0--|
D |--2--------------2----------------------------0-------2----0---------|
A |----0--------0-------------0--------3--------------------------------|
E |---------------------3-----------------------------------------3-----|




E |--3--1-0-1--3---------------------3--5-3-5--1---------------------0---0--1--|
B |--1---------1-----1-----3--1------1---------1-----1--3----3-----3---3----1--|
G |--0---------0---0---3------0--0---0---------2---2----2----3--------------2--|
D |--2---------2-------3------2------2---------3--------0----3--------------3--|
A |--3---------3-------1------3------3---------3--------0----1--------------3--|
E |--------------------1-------------------------------------------------------|




E |-------0------6---8--3----3-1--------0----0--1----------------|
B |----1--1---8--8------5------1------1-1-------3------3-1-0--1--|
G |--2----0------8------5------2----2---0-------2--0----------0--|
D |-------2------8------5------3--------2-------0--0----------2--|
A |-------3--------------------3--------3----------2----------3--|
E |------------------------------------------------3-------------|




E |------------------------------------------------------------------3--1--3---|
B |------------------------1-----0-0-----------------------0------0--4--1--0---|
G |-----------------0----0-----------2--2-----0-2----2-2-2--------0--3--2--0---|
D |----0--2---2-2-2-------------------------3---0--------------4--2-----0--0---|
A |--3----3---------2------0-------------------------------2------2------------|
E |-----------------3--------3----------1--------------------------------------|




E |--------------------0----0-1--------------------------------------------|
B |----1---0--0------1-0------3----0-1-------------------------------------|
G |--0-0--------2------0------2------2--------------0-1-3------------------|
D |----2---------------2------0------0--------0-2-4------------------------|
A |----3------0--------2------------------0-3------------------0---0---0---|
E |-------------------------------------1--------------------3---3---3-----|




E |-------------------------------------------------------------------0-1-0-1-0-1-|
B |-------------------------------------------0---0---0--1-3-1-3-1-3--------------|
G |------------------------------0---0---0--2---2---2-----------------------------|
D |---------------0-2-0-2-0-2--3---3---3------------------------------------------|
A |--2-3-2-3-2-3------------------------------------------------------------------|
E |-------------------------------------------------------------------------------|




E |--3--1-0-1--3---------------------3--5-3-5--1---------------------0---0--1--|
B |--1---------1-----1-----3--1------1---------1-----1--3----3-----3---3----1--|
G |--0---------0---0---3------0--0---0---------2---2----2----3--------------2--|
D |--2---------2-------3------2------2---------3--------0----3--------------3--|
A |--3---------3-------1------3------3---------3--------0----1--------------3--|
E |--------------------1-------------------------------------------------------|




E |-------0------6---8--3----3-1--------0----0--1----------------|
B |----1--1---8--8------5------1------1-1-------3------3-1-0--1--|
G |--2----0------8------5------2----2---0-------2--0----------0--|
D |-------2------8------5------3--------2-------0--0----------2--|
A |-------3--------------------3--------3----------2----------3--|
E |------------------------------------------------3-------------|




E |--------0--1--------------------1--------0---0---------------3---|
B |------1----1----------------1------1--3--1-3-----------------1---|
G |--0-0------2--------------0-1------------0----------------0--0---|
D |-----------3--------0-2-3---3------------2-------------------2---|
A |--------------0-2-3---------3------------3------------3------3---|
E |--------------------------------------------------3--------------|




La Version avanzada 2 esta en el archivo de texto descargable ;) / The advanced version 2 is in the downloable text file ;)










Descargas / Downloads

El archivo de texto contiene las 3 versiones / The text file has the 3 versions
Tab Under sea Temple 4shared
Tab Under sea Temple Mediafire









partituras/sheetmusic Partitura en formato JPG / Sheet music in JPG format

4shared Version 1
      


4shared Version 2
      




Mediafire Version 1
under sea temple v1-1 under sea temple v1-2 under sea temple v1-3


Mediafire Version 2
under sea temple v2-1 under sea temple v2-2 under sea temple v2-3












partituras/sheetmusic Partitura en formato PDF / Sheet music in PDF format
pdf Under sea temple V1 4shared
pdf Under sea temple V1 Mediafire

pdf Under sea temple V2 4shared
pdf Under sea Temple V2 Mediafire









Archivo Guitar pro / Guitar pro File
Guitar pro Under sea temple V1 guitar pro 4shared
Guitar pro Under sea temple V1 guitar pro Mediafire

Guitar pro Under sea temple V2 guitar pro 4shared
Guitar pro Under sea temple V2 guitar pro Mediafire




Midis
midi Under sea temple V1 midi by cogedor barato 4shared
midi Under sea temple V1 midi by cogedor barato Mediafire

midi Under sea temple V2 midi by cogedor barato 4shared
midi Under sea temple V2 midi by cogedor barato Mediafire








mp3 Under sea Temple 4shared
mp3 Under sea Temple Mediafire

Contraseña/Password: http://siguebrillandocosmos.blogspot.com







Escuchar / Listen

Under Sea temple

















Enlaces relacionados
· Partituras de los OST de Saint seiya "Made in luxemburgo"




·

No hay comentarios:

Publicar un comentario en la entrada

comenten CHE!