sábado, 4 de enero de 2014

Requiem de Mime a 2 guitarras Tab

Si, como lo leen. Una adaptacion para 2 guitarras de la famosa tonada de Mime. Contrario a lo que puedan pensar, resultó mas sencillo hacer el tab para 2 guitarras porque esencialmente es una trascripcion "literal" de las partituras que hice hace algun tiempo. Hacer una transcripcion del requiem para 1 sola guitarra manteniendo fidelidad con la pieza original (es decir, melodia + acompañamiento) es algo muy dificil aunque no imposible.

Yes, as you read. A transcription for 2 guitars of the famous Mime's melody. Contrary to what you might think, it became easier to make the tab for 2 guitars because, in essence, it's a "literal" transcription from the sheet music made by me time ago. Making a transcription of the Requiem for 1 guitar and keeping the accuracy with the original piece (i.e. melody + accompaniment) it's something difficult but not impossible.





(de 00:00 a 01:02 :P / from 00:00 to 01:02 :P )



Y para aclarar un poco lo obvio, esta pieza musical (y de hecho, todas las demas de Mime) en realidad pertenece a Orfeo, el caballero de plata resucitado en la pelicula de Eris. Porque repetir la musica? Seguramente por una cuestion de comodidad y costo. Hacer una musica diferente requiere tiempo, dinero y movilidad de recursos. La musica de Orfeo ya estaba lista y "solo" se habia escuchado 1 vez. Era totalmente reciclable :P Tambien hay que tener en cuenta que los guionistas pensaron en hacer un dios guerrero poseido por dicho caballero de plata. Esa seria la explicacion del "parecido" entre Mime y Orfeo resucitado. El personaje habia gustado y tenia potencial dramatico asi que lo "re-utilizaron" (y de paso abarataron costos de diseño de personaje y creacion de musica XD ). La idea de la posesion eventualmente se descarto mas no asi el diseño y musica del personaje. En terminos generales, fue una buena idea porque el personaje de Mime es uno de los dioses guerreros favoritos y "su" Requiem es el BGM que mas gusta a los fans ;)

And making the obvious clearer, this musical piece (and the others played by Mime) actually belongs to Orpheus, the silver saint resurrected in the Eris movie. Why to repeat the same music? most probably because of the costs and the convenience. To make a different music requires time, money and resources mobility. Orpheus' music was already made and it was played "only" once. It was 100% recyclable :P Also have in mind that the scriptwriters thought in making a god warrior possessed by such silver saint. That would be the explanation of the "similarity" between Mime and the Resurrected Orpheus. They liked the character and its drama potential was good so they "re-used" him (meanwhile they reduced character design costs and creation of music XD). The idea of the possession was eventually discarded but not the design and music of the character. In general terms it was a good idea because Mime is one of the favorites god warriors and "his" Requiem is the most liked BGM between the fans ;)


            

                                                      Fanarts by Niiii-Link












Datos/Data
·Nombre Ingles internacional : Andromeda Shun, That Fight 
·Nombre original japones : アンドロメダ瞬、その戦い
·Nombre japones en Romaji: Andoromeda shun , sono tatakai
·Traduccion japonesa: Andromeda Shun, that battle / Andromeda Shun, Aquella batalla

·Disco/Album:  Original Soundtrack IV (OST 4)

·Compositor: Seiji Yokoyama  横山菁児

·Nº de Track: 13

·Duracion : 3:04













Version facil / Easy version

E |------0-3-2-2----------5-3-2-0---0-2-3---5---5-7-8-7---3---2---------0--0-0-|
B |--0-0---------0----0-0------------------1------------0-------0-0-2-4--------|
G |----------------------------------------------------------------------------|
D |----------------------------------------------------------------------------|
A |----------------------------------------------------------------------------|
E |----------------------------------------------------------------------------| x2








Version 2 guitarras / 2 guitars version

Guitarra 1
E |--------------------------------------|--------------------------------------|
B |--------------------5-----------8-----|--7-----------7-----------------------|
G |--4-----------4-----------------------|--------------------4-----------------|
D |--------------------------------------|--------------------------------------|
A |--------------------------------------|--------------------------------------|
E |--------------------------------------|--------------------------------------|

Guitarra 2
E |-----------0-----------------0--------|--------------------------------------|
B |--------0-----0-----------0-----0-----|--------0--4--0-----------0--4--0-----|
G |-----0-----------0-----0-----------0--|--------------------------------------|
D |--2-----------------2-----------------|--1--4-----------4--1--4-----------4--|
A |--------------------------------------|--------------------------------------|
E |--------------------------------------|--------------------------------------|





Guitarra 1
E |--------------------5-----------------|--------------------------------------|
B |--------------------------8-----7-----|--5-----------------5-----7-----8-----|
G |--4-----------4-----------------------|--------------------------------------|
D |--------------------------------------|--------------------------------------|
A |--------------------------------------|--------------------------------------|
E |--------------------------------------|--------------------------------------|

Guitarra 2
E |--------------------------------------|--------------------------------------|
B |--------0--3--0-----------0--3--0-----|-----------2-----------------2--------|
G |--------------------------------------|--------2-----2-----------2-----2-----|
D |--0--4-----------4--0--4-----------4--|-----2-----------2-----2-----------2--|
A |--------------------------------------|--4-----------------4-----------------|
E |--------------------------------------|--------------------------------------|





Guitarra 1
E |--5-----------------5-----7-----8-----|--7-----------------3-----------------|
B |--------------------------------------|--8-----------0-----5-----------------|
G |--5-----------------5-----7-----9-----|--9-----------0-----4-----------------|
D |--------------------------------------|--------------2-----------------------|
A |--------------------------------------|--------------------------------------|
E |--------------------------------------|--------------------------------------|

Guitarra 2
E |--------------------------------------|--------------------------------------|
B |-----------1-----------------1--------|-----------0-----------------0--------|
G |--------2-----2-----------2-----2-----|--------0-----0-----------0-----0-----|
D |-----2-----------2-----2-----------2--|-----2-----------2-----2-----------2--|
A |--3-----------------3-----------------|--2-----------------2-----------------|
E |--------------------------------------|--------------------------------------|





Guitarra 1
E |--------------------------------------|--------------------------------------|
B |--7-----------------------------4-----|--5-----------5-----5-----------------|
G |--8-----------4-----4-----6-----------|--4-----------------------------------|
D |--------------------4-----------------|--------------------5-----------------|
A |--------------------------------------|--------------------------------------|
E |--------------------------------------|--------------------------------------|

Guitarra 2
E |--------------------------------------|-----------0-----------------0--------|
B |-----------0-----------------0--------|--------0-----0-----------0-----0-----|
G |--------------------------------------|-----0-----------0-----0-----------0--|
D |-----1--4-----4--1-----1--4-----4--1--|--2-----------------2-----------------|
A |--2-----------------2-----------------|--------------------------------------|
E |--------------------------------------|--------------------------------------|





Guitarra 1
E |--------------------------------------|--------------------------------------|
B |--------------------5-----------8-----|--7-----------7-----------------------|
G |--4-----------4-----------------------|--------------------4-----------------|
D |--------------------------------------|--------------------------------------|
A |--------------------------------------|--------------------------------------|
E |--------------------------------------|--------------------------------------|

Guitarra 2
E |-----------0-----------------0--------|--------------------------------------|
B |--------0-----0-----------0-----0-----|--------0--4--0-----------0--4--0-----|
G |-----0-----------0-----0-----------0--|--------------------------------------|
D |--2-----------------2-----------------|--1--4-----------4--1--4-----------4--|
A |--------------------------------------|--------------------------------------|
E |--------------------------------------|--------------------------------------|





Guitarra 1
E |--------------------5-----------------|--------------------------------------|
B |--------------------------8-----7-----|--5-----------------5-----7-----8-----|
G |--4-----------4-----------------------|--------------------------------------|
D |--------------------------------------|--------------------------------------|
A |--------------------------------------|--------------------------------------|
E |--------------------------------------|--------------------------------------|

Guitarra 2
E |--------------------------------------|--------------------------------------|
B |--------0--3--0-----------0--3--0-----|-----------2-----------------2--------|
G |--------------------------------------|--------2-----2-----------2-----2-----|
D |--0--4-----------4--0--4-----------4--|-----2-----------2-----2-----------2--|
A |--------------------------------------|--4-----------------4-----------------|
E |--------------------------------------|--------------------------------------|





Guitarra 1
E |--5-----------------5-----7-----8-----|--7-----------------3-----------------|
B |--------------------------------------|--8-----------0-----5-----------------|
G |--5-----------------5-----7-----9-----|--9-----------0-----4-----------------|
D |--------------------------------------|--------------2-----------------------|
A |--------------------------------------|--------------------------------------|
E |--------------------------------------|--------------------------------------|

Guitarra 2
E |--------------------------------------|--------------------------------------|
B |-----------1-----------------1--------|-----------0-----------------0--------|
G |--------2-----2-----------2-----2-----|--------0-----0-----------0-----0-----|
D |-----2-----------2-----2-----------2--|-----2-----------2-----2-----------2--|
A |--3-----------------3-----------------|--2-----------------2-----------------|
E |--------------------------------------|--------------------------------------|





Guitarra 1
E |--2-----------------------------------|--0--------0---------------0----------|
B |--4-----------------------------4-----|--0--------0---------------0----------|
G |--4---------4-----4-----6-------------|--0--------0---------------0----------|
D |--4-----------------------------------|--2--------2---------------2----------|
A |--2-----------------------------------|--2------------------------2----------|
E |--------------------------------------|---------------------------0----------|

Guitarra 2
E |--------------------------------------|--0--------0---------------0----------|
B |--4-----------------------------------|--0--------0---------------0----------|
G |--4-----------------------------------|--0--------0---------------0----------|
D |--4-----------------------------------|--2--------2---------------2----------|
A |--2-----------------------------------|--2------------------------2----------|
E |--2-----------------------------------|---------------------------0----------|















Descargas / Downloads

Version facil + Version 2 guitarras + tabs adicionales para la 2da. guitarra / Easy version + 2 guitars version + additional tabs for the 2nd guitar

Tab Tab Requiem de cuerdas p/2 guitarras 4shared
Tab Tab String Requiem for 2 guitars Mediafire




partituras/sheetmusic Partitura en formato JPG / Sheet music in JPG format

4shared



Mediafire
Requiem mime1 requiem mime2 requiem mime 3




partituras/sheetmusic Partitura en formato PDF / Sheet music in PDF format

pdf Requiem Mime 2 guitarras tab 4shared
pdf Requiem Mime 2 guitarras tab Mediafire




Archivo Guitar pro 5 / Guitar pro 5 file
Guitar pro Requiem mime guitar pro (ASTF) 4shared
Guitar pro Requiem mime guitar pro (ASTF) Mediafire




Midi
midi Requiem Mime 2 guitarras 4shared
midi Requiem Mime 2 guitarras Mediafire





mp3 Andromeda shun, that fight Mediafire

Contraseña/Password: http://siguebrillandocosmos.blogspot.com













Enlaces relacionados
· Inauguramos este blog de saint seiya con partituras de Cogedor Barato (o sea yo :P)
· Tab del Requiem de Mime (Con partitura y todo...)
· Midis y Partituras de Saint Seiya de Sigue brillando Cosmos
· Partituras de los OST de Saint seiya "Made in luxemburgo"
· Solfeos de Mime y Orfeo
· Unas cuantas partituras de Saint seiya "repetidas" que les pueden interesar :)



·

No hay comentarios:

Publicar un comentario en la entrada

comenten CHE!