domingo, 18 de enero de 2015

Deprisa caballeros Athenienses!!! Tabpartituras/sheetmusic

Si no reconocen esa frase no tuvieron infancia XD Estas inmortales palabras eran dichas en el preview de cada capitulo de la saga de las 12 casas (La mejor saga de todo saint seiya :) por Raul Espinoza y el track "Galaxian Wars" sonaba de fondo. Sin lugar a dudas a todo fan de Saint Seiya se le erizaba la piel al escuchar esta pieza musical :D

If you didn't recognize that phrase you didn't have childhood XD those immortal words were said in every episode preview of the 12 temples saga (the best saga of all Saint Seiya :) by Raul Espinoza and the track "Galaxian wars" was played in the background. Without a doubt every Saint Seiya fan get goosebumps just by hearing this musical piece.








Esta pieza es magnifica pero si se atreven a tocarla desde ya les digo que necesitan bastante habilidad en su instrumento musical porque, como se puede escuchar, el punteo es muy rapido en ciertas partes. Es mas, yo diria que lo mas practico seria tocarla a 2 guitarras. En las partes rapidas casi parece un duelo de violines. Queda excelente y es bastante divertido si tocan con un amigo ;).

This piece is magnificent but if you dare to play it you must be quite skilled on your musical instrument because, as you can hear, the notes are very fast in some parts. What is more, you should play it with 2 guitars. In the fast parts of the melody it sounds like a duel of violins! It sounds excellent and is pretty fun to play it with a friend ;)



un pianista muy bueno tocando esta pieza de manera genial :D :D






Algo que debo remarcar enormemente es que todo el trabajo de sacar las notas, darles su duracion y tiempo, agregar la percusion y demas, fue hecho por un fan llamado EPSYLON. Este fan es un profesional que hasta se atrevio a hacer la banda sonora del llamado "Cygnus Project". Yo lo unico que hice fue hacer la partitura y demas, copiando y pegando desde el midi que el hizo originalemte hace tiempo. Desde aqui saludamos a EPSYLON

Something i must strongly remark is that all the work like getting the notes, the duration, adding the percussion, etc, was done by a fan called EPSYLON. This fan is a music pro that even dared to create the soundtrack for the "Cygnus Project". I only did the tab and sheet music by copy-paste from the midi that he originally made long time ago. From here we send greetings to EPSYLON ^^












Datos/Data
·Nombre Ingles internacional : Galaxian Wars
·Nombre original japones : 銀河戦争 [ギャラクシアンウォーズ]  
·Nombre japones en Romaji:  (Ginga Sensou [Gyarakushian'uoozu])
·Traduccion japonesa: Galactic War [Galaxian Wars]  / Guerra Galactica [Guerras Galaxianas]

·Disco/Album: OST 1

·Compositor: Seiji Yokoyama 横山菁児

·Nº de Track: 03

·Duracion : 3:54















Version Avanzada / Advanced version


E |--3-3-3-3-3-3-3-3-3-3-3-3-3-3-3-3-3---|
B |--------------------------------------|
G |--------------------------------------|
D |--------------------------------------|
A |--------------------------------------|
E |--------------------------------------|



E |--------------------------------------------------------------------3--|
B |-------------------------------------------------------------3---3-----|
G |---------------------------------------------------0-2-0-2-3---3-------|
D |---------------------------------------------0---0---------------------|
A |----0---0---0---0---0---0---0---0----0---0-----------------------------|
E |--3---3---6---6---3---3---6---6----3---3---6---6-----------------------|



E |--------------|
B |--------1-3---|
G |--0-2-3-------|
D |--------------|
A |--------------|
E |--------------|



E |----------------------------------------------------0---0---5---5--10---|
B |--------------------------------------------------3---3---6---6---------|
G |--------------------------------------------2---2-----------------------|
D |----2---2-3-2-3-2---2---2-3-2-3-2---2---2-3---3-------------------------|
A |--5---5-----------5---5-----------5---5---------------------------------|
E |------------------------------------------------------------------------|



E |-------------0--1--3--5--|
B |----0-1--2-3-------------|
G |--2----------------------|
D |-------------------------|
A |-------------------------|
E |-------------------------|



E |------------------------------------------------------------0---0--5---|
B |----------------------------------------------------0---0-1---1--------|
G |--------------------------------------------------2---2----------------|
D |--------------------------------------------2---2----------------------|
A |----2---2-3-2-3-2---2---2-3-2-3-2---2---2-3---3------------------------|
E |--5---5-----------5---5-----------5---5--------------------------------|



E |-------------|
B |----------1--|
G |----0-2-3----|
D |--3----------|
A |-------------|
E |-------------|



E |------------------------------------------------------------0---0--5---|
B |----------------------------------------------------0---0-2---2--------|
G |--------------------------------------------------2---2----------------|
D |--------------------------------------------2---2----------------------|
A |--0-2-0-2-4-2-4-2-0-2-0-2-4-2-4-2-0-2-0-2-4---4------------------------|
E |-----------------------------------------------------------------------|



E |--6-7-8-9--------------------0----8---10----------------------------------|
B |----------------2---6----1-3----6---6-------------------------------------|
G |------------------3-------------------------7-7-7-7-7-7-7-7-7-7-7-7---7---|
D |--------------4-------------------------------------------------------7---|
A |--------------------------------------------------------------------------|
E |--------------------------------------------------------------------------|



E |-----------------------------------0-0-0-0-3---0-0-0-0-3---0-0-0-0-3-0-0-3-7--|
B |------------------------------------------------------------------------------|
G |--7--7--7--7--------------------0---------------------------------------------|
D |--7--7--7--8----------------1-3-----------------------------------------------|
A |-----------------6-8----0-1---------------------------------------------------|
E |---------------6------4-------------------------------------------------------|



E |--0--------------------------------------------|
B |-----4--2--0-----------------------------------|
G |--------------2--1-----------------------------|
D |--------------------4--2--2--1-----------------|
A |--------------------------------4--2--0--------|
E |-----------------------------------------4--2--|



E |---------------------------------------------------0---0-----7---7--12---|
B |---------------------------------------------0---0---7---7-8---8---------|
G |----------0---0-----------0---0------------0---0-------------------------|
D |--2-4-2-4---4---4-2-4-2-4---4---4--2-4-2-4-------------------------------|
A |-------------------------------------------------------------------------|
E |-------------------------------------------------------------------------|



E |--0-2-3-5-7-------------------------------------|
B |--------------0-0--0-0-0--0-0-0--0-0-0--0-0-0---|
G |--------------0-0--0-0-0--0-0-0--0-0-0--0-0-0---|
D |--------------0-0--0-0-0--0-0-0--0-0-0--0-0-0---|
A |------------------------------------------------|
E |------------------------------------------------|



E |-------------------------------------------------|
E |-------------------------------0----0--1--2---3--|
E |----------------------0----2---------------------|
E |----------0---2---4------------------------------|
E |--2---3------------------------------------------|
E |-------------------------------------------------|














Descargas / Downloads

Tab + tab un poco mas facil / Tab + tab a little easier

Tab Galaxian wars tab 4shared
Tab Galaxian wars tab Mediafire





partituras/sheetmusic Partitura en formato JPG / Sheet music in JPG format

4shared



Mediafire
Galaxianwars1Galaxianwars2Galaxianwars3




partituras/sheetmusic Partitura en formato PDF / Sheet music in PDF format

pdf Galaxian Wars tab 4shared
pdf Galaxian Wars tab Mediafire




Archivo Guitar pro 5 / Guitar pro 5 file
Guitar pro Galaxian wars guitar pro 4shared
Guitar pro Galaxian wars guitar pro Mediafire




Midi
midi Galaxian Wars guitarra 4shared
midi Galaxian Wars guitarra Mediafire





mp3 Galaxian Wars Mediafire

Contraseña/Password: http://siguebrillandocosmos.blogspot.com






Escuchar / Listen
(minuto 1:04)








Enlaces relacionados

· Disco OST 1 (La magia comienza...)






·

No hay comentarios:

Publicar un comentario en la entrada

comenten CHE!