martes, 15 de enero de 2013

Tab de Saint of hope Tab


Una version mas relajada de Pegasus Fantasy que muchos identificaran instantaneamente al escucharla. Quizas una de las versiones mas bellas que puede encontrarse en los soundtracks :D fue utilizada varias veces hasta antes del inicio de la saga de las 12 casas y despues nunca mas (como casi todas la musica pre-12 casas). Los viejos fans seguro van a poder identificarla con solo ver estas capturas. Tengo razon? :D

A more relaxed version of Pegasus Fantasy that many will be able to identify just by hear it. Maybe one of the most beautiful versions in the whole saint seiya soundtrack :D it was used many times until the beginning of the 12 temples saga and then never ever (as almost all the pre 12 temples music). I'm pretty sure that the old fans will identify the piece just by seeing these snapshots. Am i right? :D









Sin duda recordaran la escena donde Seiya y Saori saltan por el risco, tratando de escapar de Shaina y jamian. Una escena donde cualquier otra musica quizas le haria perder toda su carga emotiva. Es de admirar la habilidad que tiene el sensei Seiji yokoyama para hacer un arreglo que suena distinto a la cancion original y aun asi utilizar practicamente las mismas notas y mantener la misma belleza :)
Como notaran mas adelante, el tab avanzado esta "a la mitad". La explicacion de esto es que en la segunda parte de la pieza no se escucha un acompañamiento que pueda usarse (al menos, para mi). De hecho este track es perfecto para 2 guitarras: 1 para la melodia y otra para el acompañamiento con rasgueo de acordes. La simpleza de esta pieza forma parte de su belleza, ademas con esa 2da guitarra se es capaz de imitar el tono suave pero armonioso de la misma.

Without doubt you remember the scene where seiya and saori jump off a cliff together trying to scape from Shaina and Jamian. A Scene where this piece fits perfectly and any other just won't. We must admire the seiji yokoyama's hability for making an arrangement that sounds different to the original song and yet he uses the same melody notes + keeps the beauty :)
As you will see later, the advanced tab is "half finished". The explanation is that in the second part of the piece there's not a usefull accompaniment (for me at least). In fact, this track is perfect for 2 guitars: 1 for the melody and another one for the accompaniment with plunk. The simplicity of this piece is part of its beauty, also that second guitar is able to mimic the soft but harmonious tone of it.










Datos/Data
·Nombre Ingles internacional : Saint of Hope
·Nombre original japones : 希望の聖闘士 [セイント] 
·Nombre japones en Romaji:  Kibou no seitoushi [Seinto] 
·Traduccion japonesa: Saint of hope  / Santo (caballero) de esperanza


·Disco/Album: OST III

·Compositor: Seiji Yokoyama 横山菁児

·Nº de Track: 10

·Duracion : 3:35











Version facil / Easy version

E |-------------------------------------------------------------------------|
B |------------------------------------------------------1-2----------------|
G |--------0-2---2-2-0---0-------------------0----0-2--2--------------0-2---|
D |--0-2-3-------------3---3-2----0-2-3--2-3----3---------------0-2-3-------|
A |-------------------------------------------------------------------------|
E |-------------------------------------------------------------------------|




E |-----------------------------------------------6-5-5-3-5-3-3-------8-6-5-3-1--|
B |------------------------------------------------------------------------------|
G |--2-0-0---0---------------------2-0--------------------------5-5-5------------|
D |--------3---3-2---0-2-3-2---2-0-----3-2---0-----------------------------------|
A |----------------------------------------3-------------------------------------|
E |------------------------------------------------------------------------------|




E |----0-1-0---1--0---3-1-0-3------------0----------------------------------------|
B |--3-------3------3----------1-1-1-2-3------------------------------------------|
G |---------------------------------------------0-2-2--0-2-0---------2-------0-0--|
D |-------------------------------------------3--------------3-2-0-0-----2-3------|
A |-------------------------------------------------------------------------------|
E |-------------------------------------------------------------------------------|




E |---------------------------------------------------------------------------|
B |----1----------------------------------------------------------------------|
G |--0---3-2-2-0-2-----0-2-------0-2-2--0-2-0----------2-------0-0------0-0---|
D |------------------3---------3--------------3-2--0-0-----2-3------2-3-------|
A |---------------------------------------------------------------------------|
E |---------------------------------------------------------------------------|




E |--------------------------|
B |-------------(1)----------|
G |--3-2-0-2-------(2)-(3)---|
D |--------------------------|
A |--------------------------|
E |--------------------------|









Version avanzada / Advanced version

E |----------------------5-5------------------------------------------------------|
B |----5-6-8-10----------6---8-6-6h8-6---------------5-6------5-6-8-----6-8-10----|
G |--7-------------------7-------------9-----------7------------------------------|
D |-------------0---7-------------------------7----------0------------------------|
A |-----------0---8----------------------0---7-------------------------------0--8-|
E |----------------------------------------8-----------6------------8-------------|




E |-----8-9-----------------------------------------------------------------------|
B |--10-----------5-6-8-10----------8/10-8-8-6-6h8-6-5--------1---------3-5-6-5---|
G |-------------7---------------------------------------0-------2-0---------------|
D |--------------------------0----------------------------3-2---------------------|
A |------------------------7---0------------------------------------------------0-|
E |-------------------------------------------------------------------------------|




E |------5-----------------6-5-5---5-----------8-6-5---------------------------|
B |--5-----8-6-5-----------------8---8-8-------------8-6-----5-6-5---6---5-----|
G |----7---------5-7---------------------5-5-5-------------7-------7-------7---|
D |----------------------------------------------------------------------------|
A |----------------------------------------------------------------------------|
E |----------------------------------------------------------------------------|




E |------------------------------5-5-----5-----------5---------------8-6-5-5---5-|
B |--8-6-5-8-----------5-----6-8-------8---8-6-5----------5-6-8-8--8---------8---|
G |----------5-5-5-6-7---------------------------7-7-----------------------------|
D |------------------------------------------------------------------------------|
A |------------------------------------------------------------------------------|
E |------------------------------------------------------------------------------|




E |------5------5-5-----5-----------5-------------------------6-5---5------------|
B |--6-8----6-8-------8---8-6-5----------5-6-8-8---5-6-8-8--------8----(8)(5)(6)-|
G |-----------------------------7-7----------------------------------------------|
D |------------------------------------------------------------------------------|
A |------------------------------------------------------------------------------|
E |------------------------------------------------------------------------------|











Descargas / Downloads

El tab incluye acordes :D / The tab includes chords :D
Tab Saint of hope tab 4shared
Tab Saint of hope tab Mediafire




mp3Saint of Hope 4shared
mp3Saint of Hope Mediafire

Contraseña/Password: http://siguebrillandocosmos.blogspot.com







Escuchar / Listen  
(0:04 - 1:55)















Enlaces relacionados
· Acordes de pegasus Fantasy (Ya era hora :)
· Magia pianistica de la mano de Absolutepitcher
· Disco "Saint Seiya - Hits" (El primero de la trilogía)
· Tabs de Pegasus Fantasy (Melodia)



·

2 comentarios:

Anónimo dijo...

hola hombre q pasa:???????? s q no s si podras pro podias aser la cancion completa de pegasus fantasy ???????????? s q te costara pero yo te animo ha hacerlo

Cogedor_barato dijo...

Lo que pasa es que la segunda parte es practicamente igual a la primera. Los coros son identicos. No tiene sentido hacerla completa. Si te referis al solo con guitarra electrica, lamento decirlo pero no tengo la habilidad para sacar ese solo :(

Publicar un comentario en la entrada

comenten CHE!