viernes, 22 de abril de 2011

Orfeo en la "play" 2 Tab solfeo/solfa

Mi primer acercamiento con el videojuego para playstation 2 de los caballeros del zodiaco llamado "Saint Seiya: The Hades" se dio primero con el soundtrack.  Escuchar un soundtrack sin haber jugado el videojuego da una cierta objetividad sobre si gusta o no cierta musica "a la primera". En si la musica no me desagrado, pero hubo 2 temas que me gustaron desde la primera vez que los escuche: El opening y la pieza dedicada a Orfeo. Esta ultima es una bella, aunque triste, melodia que va muy acorde con el Orfeo de la saga de Hades y me inspiro a sacar la partitura :D
Tengo que aclarar que el nombre que aparece en la partitura (Adagio de Orfeo) me lo invente yo como para identificar mejor a la melodia en vez de llamarla "Orfeo's Theme" que suena bastante repetitivo ya :P (Lei por ahi que tambien le dicen "El Arpa Melancólica de Orfeo" o incluso "El requiem de Orfeo"). Asi que nada de andar diciendo que soy un mentiroso, que ese no es el verdadero nombre y demas. Advertidos quedaron.
Respecto a la partitura, esta pieza es sencilla aunque algo corta. Le baje 1 semitono a la partitura para una mas facil lectura (sino habria estado llena de sostenidos). El tab y el solfeo se hicieron en base a la partitura.

My first approach with the videogame for playstation 2 from the "knights of zodiac" called "Saint Seiya: The Hades" was first with the soundtrack. To hear  a soundtrack without playing the videogame gives a certain objetivity about if it likes or not at the first try. The music itself was allright but  there's 2 themes that i liked from the first time i heard: The opening and the piece dedicated to Orpheus (Orphee). That piece is a beautiful and sad melody which goes well with the Orpheus' background from the Hades Chapter and inspired me to make the Sheet music :D 
I must clarify that the name in the sheet (Adagio de Orfeo = Orpheus' Adagio) was invented by me to identify much better this piece instead of calling it "Orpheus' theme", which sounds very repetitive at this point :P (some fans call it "Orpheus' Melancholy Harp" or "Orpheus' requiem"). So don't go saying that "i'm a liar" or "that's not the real name" or else. You were warned.
About the Score, this piece is simple but a little short. I made it with a half step down of tuning for an easier reading (if not, it'll be full of sharps). The tab and the solfa (notation) were based on the sheet music.








Tab version avanzada/ Advanced version Tab

E |---------------------------------------------------------------------|
B |------1-0-1-3------1-0-1---------1-0-1-3-------------0-------1-3-----|
G |-------------------------2-------------------------------------------|
D |----2------------2-------------2----------2---0----2-----------0-----|
A |--0------------0-------------0------------0-3--------0---3-2-3-------|
E |-------------------------------------------------------0-------------|



E |----------------0-------1-3-1---0--------1------0--3--5------1-0-----|
B |--0-------1-3--------------------------------------------------------|
G |---------------------------------------2-----0--2---------0----------|
D |----------------------------0-------0----0---0-----------------------|
A |--0---3-2-3-0---0---3-2-3-------0-3--------0------------2------------|
E |----0-------------0-----------------------------------0--------------|



E |--0--------------------0--5-----3-1---3--------5---5-----------------|
B |---------------------3--------0-------------0------------------------|
G |------------------------------2-----------0--------------------------|
D |----------0---------------3---3-----------2-------(2)-------0--------|
A |--0---2-3----0---0-2-3------3-----------2----------0---0----0---0----|
E |----0----------0----------------------0--------------0--------0------|





Solfeo (Flauta) / Solfa (Flute)

a3 e4 c5 b4 c5 d5    a3 e4 c5 b4 c5 a4    a3 e4 c5 b4 c5 d5
a3 c5 d5    e4 b4  c5 d5 b4   c5 d5 e5      f5 g5 f5 e5
a4 f5  a4+e5 g5 a5   f5 e5 e5    d5 e5 a5   g5 f5 g5      a5 a5    d4






Descargas/Downloads


partituras/sheetmusic  Partitura en formato jpg/ Sheet music in jpg format.

4shared




Mediafire
Adagio de orfeo1 Adagio de orfeo2





partituras/sheetmusic Partitura en formato pdf / Sheet music in pdf format.

pdf Adagio de orfeo 4shared
pdf Adagio de orfeo Mediafire




Punteo + version facil / Tab + easy version

Tab  Adagio de Orfeo en Tab
4shared
Tab  Adagio de Orfeo en Tab Mediafire




Solfeo - notas para flauta / Solfa - notes for flute
solfeo/solfa Solfeo del Adagio de Orfeo 4shared
solfeo/solfa Solfeo del Adagio de Orfeo Mediafire




Midi
midi  Adagio en piano 4shared
midi  Adagio en piano Mediafire

midi  Adagio en arpa 4shared
midi  Adagio en arpa Mediafire




mp3 Adagio Orfeo (1.52 Mb) 4shared
mp3 Adagio Orfeo (1.52 Mb) 4shared

mp3 Adagio Orfeo (3.81 Mb) 4shared
mp3 Adagio Orfeo (3.81 Mb) 4shared

Contraseña/Password: http://siguebrillandocosmos.blogspot.com






Tutorial en piano de Adagio de Orfeo (Synthesia)











Enlaces relacionados

· Guitarreando con Hades en la PS2
· Tabs del "String Nocturne" de Orfeo (y 1 video de su servidor XD)
· Solfeos de Mime y Orfeo
· Midis y Partituras de Saint Seiya de Sigue brillando Cosmos
· Este frances sabe tocar el piano...



·

2 comentarios:

karollskilux dijo...

wooooo interesante tu blog... este temita si es bonito del arpa de orphe en el play....

Cogedor_barato dijo...

Gracias :D hasta ahora todos los orfeos de saint seiya tuvieron bellas melodias ;)

Publicar un comentario en la entrada

comenten CHE!