sábado, 16 de abril de 2011

Tabs de "Blu Drim" (Ok, "Blue Dream" ) Tab

Nuevamente un tab version "TV Size". De hecho creo que todos los tabs seran version "TV Size" ya que las segundas partes de las canciones resultan identicas a las primeras (salvo contadas excepciones). Blue Dream esta en un "tono facil" asi que no hubo necesidad de transponer ningun tab. Ademas, no lo quise hacer tan complicado, de modo que prescindi de unos cuantos efectos en varias notas pero igual quedo bien.  Lo que deben tener en cuenta es que esta cancion es "soft" asi que  los vibratos le quedan muy bien. No teman usarlos ;)

Again here with a "TV Size" version. In fact, i think that all the tabs will be "TV Size" because the 2nd parts of the songs are indentical to the first parts (with a few exceptions). Blue Dream is in an easy pitch so there was no need to transpose any tab. Also, i didn't want to do it too complicated so some efects in a few notes were removed but it looks good anyway.  keep in mind that this song is "soft" so the vibratos fit  very well. Don't be afraid to use them ;)




Datos/Data
·Nombre Ingles internacional : Blue Dream
·Nombre original japones : 夢旅人
·Nombre japones en Romaji: Yume tabibito
·Traduccion japonesa: Dream Traveller / Viajero(s) de sueño(s)

·Disco/Album:  HITS III

·Compositor: Hironobu Kageyama  影山ヒロノブ/ Sudou Keniti  須藤賢一

·Banda / Band: Hironobu Kageyama + Broadway

·Nº de Track: 10

·Duracion : 4:09












INTRO
E |-------------------------|--0---------0------------|
B |-------------------------|----3-1-----------1-0----|
G |-------------------------|--------2-0---2---0------|
D |----0-2------------------|--------------------0----|
A |--4-------0-2-3----------|-------------------------|
E |--------3-------1---3-1--|-------------------------|




Version Facil / Easy Version
(tono original)/(original tone)

VERSO
E |--------0----0-------------0---------0-------------|
B |---------------3-1-3---------3--1-------3-0--------|
G |----2----------------2-------------2---------0-2---|
D |---------------------------------------------------|
A |---------------------------------------------------|
E |---------------------------------------------------|
    Blue dream  Hanasenai    yume ga dare ni mo aru



E |--------0---0-------------------------------------|
B |--------------3-1-3-------------0-1--3-0----------|
G |----2---------------2------0-2------------0-2-----|
D |-------------------------3------------------------|
A |--------------------------------------------------|
E |--------------------------------------------------|
    Blue dream Todokanai     omoi hodo tsunoru sa



PRECORO
E |--------------1-0----0----1-0--------------|
B |-----1-3-0--------3-----------3---1-3-0----|
G |--2--------0-------------------------------|
D |-------------------------------------------|
A |-------------------------------------------|
E |-------------------------------------------|
    Tachi agaru  yuuki wo   kureru   anata



CORO
E |------0---0-1--5-3-1-------5-3-1-0--------|
B |----3----------------3---3---------1--3---|
G |--2---------------------------------------|
D |------------------------------------------|
A |------------------------------------------|
E |------------------------------------------|
     Minna  yume tabibito  shounentachi wa



E |------0--0-1--5-3-1------5-3--1-0---------|
B |----3---------------3--3----------1--3----|
G |--2---------------------------------------|
D |------------------------------------------|
A |------------------------------------------|
E |------------------------------------------|
     Fukai  a-i no kioku  ikiru mejirushi





 Version Avanzada / Advanced Version
(Tono original) / (Original tone)

VERSO
E |-----------------------------------------------------|
B |--------5----5-------------5---------5---------------|
G |---------------7-5-5h7-------7--5-------7--4---------|
D |-5/7-------------------7-----------7---------5-5h7---|
A |-----------------------------------------------------|
E |-----------------------------------------------------|
    Blue dream  Hanase-na-i  yume ga dare ni mo a-ru



E |-----------------------------------------------------|
B |--------5---5----------------------------------------|
G |--------------7-5-5h7------------4-4h5---7-4---------|
D |-5/7------------------7-----5-7--------------5-5/7---|
A |--------------------------8--------------------------|
E |-----------------------------------------------------|
    Blue dream Todoka-na-i   omo-i ho-do  tsunoru sa



PRECORO
E |-------------------------------------------|
B |----------------6-5------5h6-5-------------|
G |-----5-5h7-4--------7-/9-------7--5-7-4----|
D |--4----------5-----------------------------|
A |-------------------------------------------|
E |-------------------------------------------|
    Tachi   agaru  yuuki wo  kureru  anata



CORO
E |----------------------------5---------------|
B |------5--5-6--6/10-8-6--------8-6-5---------|
G |----7------------------7--7---------5-5h7---|
D |--7-----------------------------------------|
A |--------------------------------------------|
E |--------------------------------------------|
     Minna yume    tabibito shounentachi  wa



E |----------------------------5---------------|
B |------5--5-6--6/10-8-6--------8-6-5---------|
G |----7------------------7--7----------5-5h7--|
D |--7-----------------------------------------|
A |--------------------------------------------|
E |--------------------------------------------|
     Fukai  a-i    no kioku  ikiru mejirush-i





OUTRO
E |----0-1-3--1-0----------------------0-1-0---------0-1---0----|
B |--3------------1--1/3---------------------3-1-1/3-----1---3--|
G |-----------------------------0-2-----------------------------|
D |-----------------------0-2-3---------------------------------|
A |-------------------------------------------------------------|
E |-------------------------------------------------------------|











Descargas / Downloads

Aca se pueden bajar el tab + Tabs adicionales. /Here you can download the tab + additional  tabs.
Tab Tab Blue Dream 4shared
Tab Tab Blue Dream Mediafire






mp3 Blue Dream 4shared
mp3 Blue Dream Mediafire

Contraseña/Password: http://siguebrillandocosmos.blogspot.com




Enlaces relacionados
· Acordes de Blue Dream
· Partituras de los OST de Saint seiya "Made in luxemburgo"
· Este frances sabe tocar el piano...
· Inauguramos este blog de saint seiya con partituras de Cogedor Barato (o sea yo :P)
· Midis y Partituras de Saint Seiya de Sigue brillando Cosmos
· Acordes de Soldier Dream (vive tus sueños y llegaras al...Saint Seiya)



·

11 comentarios:

Anónimo dijo...

el link 16 del dvd de make up no anda en 4shared

Cogedor_barato dijo...

como no anda? bajaste todos y el 16 dice error? o el 16 no baja directamente?

Anónimo dijo...

el 16 baja con 0 bytes

Cogedor_barato dijo...

Yo la baje sin problemas a la parte 16. Seguramente es un problema de mal almacenaje en tu cache y no se recarga la bajada (o algo asi :P). Ahi subi la parte 16 a mediafire para q la puedas bajar sin problemas. Cualquier otro inconveniente, escribi en el post respectivo. No importa que tan viejo sea el post, Yo leo TODO :D

Anónimo dijo...

gracias por el aporte ,estaba buscando gracias
saludos XD

Anónimo dijo...

MNE HAY GENTE K NO SABE LLER PARTITURAS PORFA PASLAS A TABLATURA ;)

Cogedor_barato dijo...

No? bueno. a ver.........listo :P

Anónimo dijo...

muy genial ....demasiado muchisimas gracias :)

Cogedor_barato dijo...

:D thank you

Anónimo dijo...

Siempre quise aprendermela... Muchas gracias y espero puedas sacarlo en tab en un video de YouTube (soy subscriptor) :DD

Cogedor_barato dijo...

ya hice el video de la version instrumental. Revisalo :D
https://www.youtube.com/watch?v=uUL1jlB7TBk

Publicar un comentario en la entrada

comenten CHE!